Oops, an error
Loading. Please wait.

Alianza Bass Tab

267 views 1 this week
no commentswrite comment
1 2 3 4 5
please rate
add to favorites
launch autoscroll
font size
0
reset
guitar tuner
Autoscroll
slow
fast
+/-
esc
set tempo
stop
Help us to improve Ultimate-Guitar.com Take our survey!
×
Author
Difficulty
Bass18 22
novice
Alianza
by: Erik Morales

|-----|---0-|-----|---0-|-----|---2-|-0---|
|-----|-----|-----|-----|-----|-----|-----|
|-3---|-3---|-3---|-3---|-3---|-3---|-----|
|-----|-----|-----|-----|-----|-----|---2-|

|-----|---0-|-0---|-2---|--2--|------|-----|
|-----|-----|-----|---0-|-3-2-|--3-3-|-----|
|-----|-3---|-----|-----|-----|-3---3|-----|
|-----|-----|-----|-----|-----|------|-----|
Suggest correction
What's this?
You can suggest a correction to this tab. Community and Mods will review your correction and vote to approve or reject it.
comments
We did not receive enough feedback on this tab! Please rate:
print report bad tab
1 2 3 4 5
guest
You may want to rate the tab now too:
select rating
Please do not post tabs as comments. Select "correction" instead!