Oops, an error
Loading. Please wait.

Ill Never Go tab

version 1
version 1

Whole song

1,720 views 24 this week
no commentswrite comment
1 2 3 4 5
2 more votes to show rating
add to favorites
×
Save as Personal and add changes to this tab that will be seen only by you. Learn more ›
×
You can save this tab as Personal to edit and correct it or add notes. All changes will be seen only by you. Learn more »
launch autoscroll
font size
0
reset
how to read this tab
guitar tuner
edit
Autoscroll
slow
fast
+/-
esc
set tempo
stop
Author
Song Cover:I'LL NEVER GO
Artist:ERIK SANTOS
Tab Arange: J.e Segovia
.
.
my Fb:https://www.facebook.com/ ^_^
CAPO IN:4th fret
This is my original tabs ^_^ sorry kung maraming mali s adlib.XD gwagwa ko nlng yung adlib eh tinamad na kc ako
kumapa ehh XD pro ayus narin nmn to eh ^_- hahaha!!XD sana po magustuhan nyo ^___^ this is my 1st tab ;) enjoy
the song.. ^_____^
pag dating sa bridge yung my /9 ibig sabahin  nun slide pabalik.:)
.
.
Intro:
e|-------------------------------------------------|
B|------------------------------------------3---1--|
G|-------0--2------4-------2h4--0--------0---------|
D|-----0---------------0---------0----0------------|
A|---------------------------------3---------------|
E|---3----------3----------------------------------|

e|-------------------------------------------------|
B|------------------------------------------3---1--|
G|-------0--2------4-------2h4--0--------0--------0|
D|-----0---------------0---------0----0------------|
A|---------------------------------3---------------|
E|---3----------3----------------------------------|



Verse:1 Same on 2&3rd
e|--------------------------------5-------------------------------------------------------------|
B|---3--3--3--3--3---0----3---3--------3-------5--5--0--0----0--0--1--3--------------1--------0-|
G|---0-----------0------------------------0-----------------------------0---------0---------2---|
D|------------------------------------------0----------------------------------2----------0-----|
A|----------------------------2--------2------------------------------------3-----------2-------|
E|---3-----------3-----3--------------------------0----------0----------------------------------|

Refrein:
e|-------------------------------------------5---3----------3--3--0--0--0-----------|
B|---1---0------3--3------------3--3--3--3--------------0-----------------3--3----0-|
G|---0-----2---------------2-------------------------0------------------------------|
D|---2----------------0------0------------------------------------------------------|
A|---0-------0---------------------2---------------------------3----------------3---|
E|-------------------------------------------------0--------------------------------|

e|------------------------------|                                              
B|--3--3--3---3--3--3--3--3/5--3|
G|------------------------------|
D|---------------0--------------|
A|-----0------------------------|
E|------------------------------|

e|-------------------------------------------------|
B|------------------------------------------3---2--|
G|-------0--2------4-------2h4--0--------0--------0|
D|-----0---------------0---------0----0------------|
A|---------------------------------3---------------|
E|---3----------3----------------------------------|

2nd stanza:
e|--------------------------------5-------------------------------------------------------------|
B|---3--3--3--3--3---0----3---3--------3-------5--5--0--0----0--0--1--3--------------1--------0-|
G|---0-----------0------------------------0-----------------------------0---------0---------2---|
D|------------------------------------------0----------------------------------2----------0-----|
A|----------------------------2--------2------------------------------------3-----------2-------|
E|---3-----------3-----3--------------------------0----------0----------------------------------|

refrein:
e|-------------------------------------------5---3----------3--3--0--0--0-----------|
B|---1---0------3--3------------3--3--3--3--------------0-----------------3--3----0-|
G|---0-----2---------------2-------------------------0------------------------------|
D|---2----------------0------0------------------------------------------------------|
A|---0-------0---------------------2---------------------------3----------------3---|
E|-------------------------------------------------0--------------------------------|

e|------------------------------|                                              
B|--3--3--3---3--3--3--3--3/5--3|
G|------------------------------|
D|---------------0--------------|
A|-----0------------------------|
E|------------------------------|

e|---------------------------------------------|
B|---------------------------0--1--3--1--0-----|
G|-------0--2------4---2h4---0--------------2--|
D|-----0---------------------0-----------------|
A|---------------------------3-----3----------3|
E|---3----------3------------------------------|

Chorus:
e|---------------------------------------------------------------------------------------------------|
B|----------3----1-----0-----------------------------------------------------------------------------|
G|---0--0-------------------0h2----0--0--0-----0-------0----0--0---3--1---0-----0h2----0---0-0-0-2-0-|
D|--------0----------------------------------0---0---0---0-------0-----------------------------------|
A|-------------------------------3---------------------------------------------------3-----3---------|
E|------3------------3----3----------------3-------2--------0---------0------0-----------------------|

e|--------------0--------------------------------------------|
B|---------0------0--0---------------0--0--------------------|
G|-------0----0--------0-0-2-0-----0-------0-0---0--0-0----0-|
D|-----0-------------------------0----------------------4--5-|
A|-------------------0---------2--------3--------0---------5-|
E|---0-------------------------------------------------------|

Intro:
e|-------------------------------------------------|
B|------------------------------------------3---1--|
G|-------0--2------4-------2h4--0--------0--------0|
D|-----0---------------0---------0----0------------|
A|---------------------------------3---------------|
E|---3----------3----------------------------------|

the 3rd stanza same in the 1st&2nd stanza.

Bridge:

e|------------------------------------|
B|------------------------------------|
G|---------0--2----0--2h4--5-4--0h2-0-|
D|-------0----2--2--------------------|
A|-----0-------------------3----------|
E|---2--------2-----------------------|

e|-------------------------------------|
B|---------7---/9---9h10-----10-9--8---|
G|-------9-----/9---------12-----------|
D|-----9-------/9--------------------0-|
A|---7-------7------------------0------|
E|-------------------------8-----------|

Chorus:
e|--------9-8---7-------------------------------9--8--7-----------------------------------7-7-----------|
B|---8-8------------8h10---8--8-8---8-----8-8-------------8h10----8--8-8-8-10--0-----8-8----8-8-8-10-0--|
G|-----0------0---0---------------0---0-------0------------------------------------0--0-----------------|
D|--------------------------------------------------------------------------------0---------------------|
A|------------------------------------------------------------------------------------------0-----------|
E|-----------------------8------8---------0--------0----0-------8----8-----------0----------------------|


e|-----7--7---------------|
B|----8---8-8-8---8-8-8-7-|
G|--0---------------------|
D|----------------------0-|
A|----------------0-------|
E|7-------8---------------|

re.chorus:
Chorus:
e|---------------------------------------------------------------------------------------------------|
B|----------3----1-----0-----------------------------------------------------------------------------|
G|---0--0-------------------0h2----0--0--0-----0-------0----0--0---3--1---0-----0h2----0---0-0-0-2-0-|
D|--------0----------------------------------0---0---0---0-------0-----------------------------------|
A|-------------------------------3---------------------------------------------------3-----3---------|
E|------3------------3----3----------------3-------2--------0---------0------0-----------------------|

e|--------------0--------------------------------------------|
B|---------0------0--0---------------0--0--------------------|
G|-------0----0--------0-0-2-0-----0-------0-0---0--0-0----0-|
D|-----0-------------------------0----------------------4--5-|
A|-------------------0---------2--------3--------0---------5-|
E|---0-------------------------------------------------------|

End:
e|-------------------------------------------------|
B|------------------------------------------3---2--|
G|-------0--2------4-------2h4--0--------0---------|
D|-----0---------------0---------0----0------------|
A|---------------------------------3---------------|
E|---3----------3----------------------------------|

e|-----------------------------------------------------3-|
B|------------------------------------------3---2-----3--|
G|-------0--2------4-------2h4--0--------0--------0--0---|
D|-----0---------------0---------0----0------------------|
A|---------------------------------3---------------------|
E|---3----------3-----------------------------------3----|

            
            
Suggest correction
Creating personal tab
Creating personal tab
You can edit any tab online and save it as your Personal.

You can edit, replace or remove any tab part or add personal notes – all changes will be seen only by you.

Personal tabs can be accessed anytime from any device, even offline.
Learn more »
Give kudos to tab author, rate the tab!
1 2 3 4 5
comments
print report bad tab
guest
You may want to rate the tab now too:
select rating
Wanna post a correction for this tab? Suggest correction