Oops, an error
Loading. Please wait.

Kung Akin Ang Mundo Tab

version 3
version 3

Interactive

7,485 views 1 this week
no commentswrite comment
1 2 3 4 5
1 last vote to show rating
add to favorites
launch autoscroll
font size
0
reset
how to read this tab
guitar tuner
Autoscroll
slow
fast
+/-
esc
set tempo
stop
Help us to improve Ultimate-Guitar.com Take our survey!
×
Author
                  VOTE THIS PLZ!=)
Chords used:
   
 =Asus2=  =Bm7= =Dmaj7= =E7sus4= =C#m7=  =D6add9= =Cmaj7= =D7=
e| -0-     -2-   -5-      -0-     -4-      -2-     -3-    -5-
B| -0-     -3-   -7-      -0-     -5-      -0-     -5-    -7-
G| -2-     -2-   -6-      -2-     -4-      -2-     -4-    -5-
D| -2-     -4-   -7-      -0-     -6-      -0-     -5-    -7-
A| -0-     -2-   -5-      -2-     -4-      -2-     -3-    -5-
E| -0-     -2-   -x-      -0-     -x-      -0-     -x-    -x-

Kung Akin Ang Mundo
-Erik Santos

INTRO:
e|-----5--5------|----4--4----|             
B|---9--9--9-----|--5--5------|         
G|---6------6----|---4--------|  <-2X
D|----7----------|--6---6-----|
A|---5---5----0--|--4---------|
E|---------------|------------|

e|------2--2-|-----0-----|
B|-----3-3---|-----0-----|
G|-----------|-----2-----|
D|-----------|-----0-----|
A|--0--2--2--|--0--2-----|
E|-----------|-----0-----|

note: use your(own)plucking in this song but strum the chords in the last chorus.
VERSES:

Asus2            Bm7
Kung ako ang may ari ng mundo, 
Asus2            Bm7
Ibibigay ang lahat ng gusto mo.
Dmaj7            C#m7 
Araw-araw pasisikatin ang araw, 
Dmaj7             C#m7
Buwan-buwan pabibilugin ko ang buwan,
         Bm7        E7sus4-D6add9-E7sus4  
Para sa'yo, para sa'yo... 

Chorus: 
        Dmaj7
Susungkitin mga bituin,
     C#m7  
Para lang makahiling, 
     Bm7 
Na sana'y naging akin,
     E7sus4      D6add9-E7sus4  
Puso mo at damdamin, 
     Dmaj7
Kung pwede lang, 
Kung kaya lang, 
    C#m7
Kung akin ang mundo, 
Bm7               E7sus4-break
Ang lahat ng ito'y,
                 (intro) 
Iaalay ko sa'yo... 

Asus2         Bm7
Kung ako ang hari ng puso, 
Asus2            Bm7
Lagi kitang ipababantay kay kupido, 
Dmaj7                C#m7
Hindi na luluha ang 'yong mga mata,
Dmaj7              C#m7 
Mananatiling may ngiti sa'yong labi,
        Bm7        E7sus4-D6add9-E7sus4
Para sa'yo, para sa'yo... 

(REPEAT CHORUS) 
Cmaj7   D7------
Ohh... ohh... 

(repeat chorus)<-one note higher

OUTRO:
e|-----5--5------|----4--4----|             
B|---9--9--9-----|--5--5------|         
G|---6------6----|---4--------|  <-2X
D|----7----------|--6---6-----|
A|---5---5----0--|--4---------|
E|---------------|------------|

e|------2--2-|-----0-----|
B|-----3-3---|-----0-----|
G|-----------|-----2-----|
D|-----------|-----0-----|
A|--0--2--2--|--0--2-----|
E|-----------|-----0-----|

ENJOY!!
Suggest correction
Give kudos to tab author, rate the tab!
1 2 3 4 5
comments
print report bad tab
guest
You may want to rate the tab now too:
select rating
Wanna post a correction for this tab? Suggest correction