Oops, an error
Loading. Please wait.

Kung Akin Ang Mundo Tab

version 4
version 4

Intro

Interactive

7,896 views 69 this week
no commentswrite comment
1 2 3 4 5
please rate
add to favorites
launch autoscroll
font size
0
reset
how to read this tab
guitar tuner
Tab Pro tools
  • play this tab
  • loop segment
  • change instrument
  • show fretboard
  • metronome
Autoscroll
slow
fast
+/-
esc
set tempo
stop
Difficulty
novice
Kung akin ang mundo by Erik santos

INTRO:

-4----5---4---4----5---7--4----5---4---5--4----5---7-|
-5--5---5---5-0--0---0----5--5---5---5----0--0---0---|
-----------------------------------------------------|
-----------------------------------------------------|
-5------------0-----------5---------------0----------|
-----------------------------------------------------|

----3----2---0---------------------------------------|
----3--3---3----3--5---5-----------------------------|
-----------------------4-----------------------------|
-----------------------------------------------------|
----3------------------------------------------------|
-----------------------0-----------------------------|

VERSE:
	A                            D
	Kung ako ang may ari ng mundo
	A                     D
	Ibibigay ang lahat ng gusto mo
            DM7                  C#m7
	Araw araw pasisikatin ang araw
            DM7                          C#m7
	Buwan buwan pabibilugin ko ang buwan
	Bm7                Em7-E7
	Para sayo, para sayo


CHORUS:
              DM7
	Susunkitin mga bitwin
	     C#m7
	Para lang makahiling
	     Bm7
	Na sanay maging akin
	     Em7        A7
	Puso mo at damdamin
	     DM7                             C#m7
	Kung pwede lang, kung kaya lang, kung akin ang mundo
	Bm7                Em7
	Ang lahat ng itoy
	  E7
	Iaalay ko sayo

(repeat intro once)

2nd VERSE
        A            D
	Kung ako ang hari ng puso
        A                  D
	Lagi kitang pababantay kay kupido
	DM7                 C#m7
	Hindi na luluha ang yong mga mata
	DM7               C#m7
	Mananatiling may ngiti sayong labi
	       Bm7        Em7-E7
	Para sayo, para sayo

REPEAT CHORUS


Pasensya na mga bros kung ndi as in sakto, pero okay naman tunog eh, hehe, enjoy!  (CE,Bueng)
comments
We did not receive enough feedback on this tab! Please rate:
print report bad tab
1 2 3 4 5
I want to post or [tab]
guest
You may want to rate the tab now too:
select rating
Please do not post tabs as comments. Select "correction" instead!