Oops, an error
Loading. Please wait.

Kung Akin Ang Mundo tab

version 6
version 6

Interactive

256 views 1 this week
no commentswrite comment
1 2 3 4 5
3 more votes to show rating
add to favorites
×
Save as Personal and add changes to this tab that will be seen only by you. Learn more ›
×
You can save this tab as Personal to edit and correct it or add notes. All changes will be seen only by you. Learn more »
launch autoscroll
font size
0
reset
how to read this tab
guitar tuner
edit
Autoscroll
slow
fast
+/-
esc
set tempo
stop
Author
Difficulty
Kung Akin Ang Mundo
Erik Santos
Transcribed by: Monstoy Guitar

Check out the video tutorial of this song on my YouTube Channel!

YOUTUBE: https://www.youtube.com/channel/UC8UpBLYq8T0mkscMhkMyuAg
FACEBOOK: www.facebook.com/monstoyguitar
WEBSITE: www.monstoyguitar.blogspot.com
TWITTER: twitter.com/monstoyguitar
ULTIMATE GUITAR: http://profile.ultimate-guitar.com/memoria1981/

Standard Tuning

INTRO
e|----4---5---4---5------4---5---7----|
B|------5-------5---5------5---5------|
G|----------4-------------------------|
D|----0-------------------------------|
A|-----------------------4------------|
E|------------------------------------| 2x

e|----3---2-0-----0----------0--0-----|
B|--------0---3------------0----0-----|
G|------0-------0--------2------1-----|
D|------------------------------2-----|
A|----3-------------------------2-----|
E|---------------------0--------0-----|

VERSE
e|-------------0-----------0-----0----|
B|----------0----0---3---3-----3------|
G|--------2------------2-----2--------|
D|------2-----------------------------|
A|----0------------0-2----------------|
E|------------------------------------|

e|-------------0-----------0-----0----|
B|----------0----0-------3-----3------|
G|--------2------------2-----2--------|
D|------2-----------------------------|
A|----0------------0-2----------------|
E|------------------------------------|


e|----------2--------------0----------|
B|--------2----2--------------0-------|
G|------2--------2-------2------2-----|
D|----0----------------2----------2---|
A|-----------------0-4----------------|
E|------------------------------------|

e|----------2-------------------------|
B|--------2----2----------------------|
G|------2--------2--------------------|
D|----0------------0------------------|
A|------------------------------------|
E|------------------------------------|

e|------------------------------------|
B|----0-----0--2-----2----------------|
G|--------2--------3------------------|
D|------2--------2--------------------|
A|----4--------1----------------------|
E|------------------------------------|

e|--------2------------------0-------------0----|
B|----3-----3-------------------0---------------|
G|------2------2-----------2------2------1------|
D|---------------4-------2----------2-----------|
A|----2------------2----------------------------|
E|---------------------0---------------0--------|

e|----------------------------------------------|
B|----8-----------------------------------------|
G|------7-7-------------------------------------|
D|----------8-----------------------------------|
A|----6-----------------------------------------|
E|----------------------------------------------|

CHORUS
e|--------5---------------4-----4-------2--------2---|
B|----7-----7---------5-----5-------3-----3----3-----|
G|------6------6--------4-----4-------2------2-------|
D|---------------7-----------------------------------|
A|----5------------0--4-----------0-2----------------|
E|---------------------------------------------------|

e|------2-0--------6----------------------------------|
B|----------0-3----5----------------------------------|
G|--------------0--6----------------------------------|
D|-----------------0----------------------------------|
A|------------0---------------------------------------|
E|----0-----------------------------------------------|

e|--------5------5-------4----------------------------|
B|----7-----7--------5--------------------------------|
G|------6------6-------4------------------------------|
D|----------------------------------------------------|
A|----5------------0-4--------------------------------|
E|----------------------------------------------------|

e|------2---2----------2---------0--0-----------------|
B|------2---2----3---3----3------0--3-----------------|
G|------4---3------2--------2----1--1-----------------|
D|----------------------------4--2--2-----------------|
A|---------------2---------------2--2-----------------|
E|----0-2-2---2------------------0--0-----------------|


[REPEAT INTRO & VERSE]

CHORUS 2
e|------5-x-----5--------4-x---4----------------------|
B|------7-x-------7------5-x-----5--------------------|
G|------6-x--------------4-x--------------------------|
D|------------7---------------------------------------|
A|----5-----5--------0-4-----4------------------------|
E|----------------------------------------------------|

e|--------2-x---0-----0-0-x-0-0-0---------------------|
B|--------3-x----0----3-3-x-3-3-2---------------------|
G|--------2-x------1--0-0-x-0-0-0---------------------|
D|----------------------------------------------------|
A|----0-2-------------------0-------------------------|
E|------------0---------------------------------------|

e|------5-x---5--------4-x-2-2-2----------------------|
B|------7-x-----7------5-x-2-2-2----------------------|
G|------6-x------------4-x-4-4-3----------------------|
D|----------------------------------------------------|
A|----5-----5------0-4--------------------------------|
E|-------------------------2--------------------------|

e|--------2-x-2-2-------------------------------------|
B|--------3-x-3---3-----------------------------------|
G|--------2-x-2---------------------------------------|
D|----------------------------------------------------|
A|----0-2-----2---------------------------------------|
E|----------------------------------------------------|

e|------0-0---0-0-------------------------------------|
B|------0---0-0---------------------------------------|
G|------2-----1---------------------------------------|
D|------2-----2---------------------------------------|
A|----0-2-----2----0----------------------------------|
E|------0-----0---------------------------------------|

e|------0-x-0---0------2-x-2---2----------------------|
B|------1-x-1---1------3-x-3---3----------------------|
G|------0-x-0---0------2-x-2---2----------------------|
D|----------------------------------------------------|
A|----3-----3-3----0-2-----2-2------------------------|
E|----------------------------------------------------|

e|--------1-x-1---1----0-x-0---0-----1-x-1---1--------|
B|--------1-x-1---1----0-x-0---0-----1-x-1---1--------|
G|--------3-x-3---3----1-x-1---1-----3-x-3---3--------|
D|----------------------------------------------------|
A|----0-1-----1-1-------------------------------------|
E|-------------------0-----0-0---0-1-----1-1----------|


REPEAT CHORUS 1 FRET HIGHER
        EbM7                 Dm7        Gm7
Susungkitin mga bituin, para lang makahiling,

     Cm7         F9sus/C
Na sana'y maging akin,    

     Fm7        G#6-Bb7
Puso mo at damdamin,
       
     EbM7
Kung pwede lang, kung kaya lang, 

     Dm7         G7sus-G7
Kung akin ang mundo,

Cm7               Dm7           G7sus-G7
ang lahat ng ito, ang lahat ng ito

Cm7              F7sus
ang lahat ng ito'y 

              OUTRO
iaalay ko sa'yo...


OUTRO
e|----5---6---5---6------5---6---8----|
B|------6-------6---6------6---6------|
G|----------5-------------------------|
D|------------------------------------|
A|----6------------------5------------|
E|------------------------------------| 

e|----5---6---5---6-----1-------------|
B|------6-------6---6---3-------------|
G|----------5-----------2-------------|
D|----------------------3-------------|
A|----6-----------------1-------------|
E|------------------------------------| 



            
            
Suggest correction
Creating personal tab
Creating personal tab
You can edit any tab online and save it as your Personal.

You can edit, replace or remove any tab part or add personal notes – all changes will be seen only by you.

Personal tabs can be accessed anytime from any device, even offline.
Learn more »
Give kudos to tab author, rate the tab!
1 2 3 4 5
comments
print report bad tab
guest
You may want to rate the tab now too:
select rating
Wanna post a correction for this tab? Suggest correction