Oops, an error
Loading. Please wait.

Gymnopedie No 1 ukulele

version 1
version 1

Whole song

  • Certain chords are simplified due to the limitatio... Show more

Interactive

631 views 21 this week
no commentswrite comment
1 2 3 4 5
3 more votes to show rating
add to favorites
×
Save as Personal and add changes to this tab that will be seen only by you. Learn more ›
×
You can save this tab as Personal to edit and correct it or add notes. All changes will be seen only by you. Learn more »
launch autoscroll
font size
0
reset
transpose
0
reset
display chords
guitar tuner
edit
Autoscroll
slow
fast
+/-
esc
set tempo
stop
Author
Difficulty
About this tab version
Certain chords are simplified due to the limitations that come with using a ukulele. I tried to preserve the feeling and depth of the original while still making it playable on uke. Was this info helpful? Yes No
Strumming
There is no strumming pattern for this song yet. and get +5 IQ
Erik Satie - Gymnopedie No.1 - Ukulele Tab
leetmeatz
3/27/2017

Standard GCEA tuning
Key: D major
3/4 Time
Tempo = 60 bpm

Each measure = three quarter notes 

The easiest way to play this song, in my opinion, is to use a one finger per string plucking hand technique.  
For me this means thumb on the G string, index on the C string, middle on the E string, followed by ring on
the A string. 

[Verse 1]

A|-----9-----|-----4-----|-----9-----|-----4-----|-----9--12--|--10--9--4--|--2--2h4--5--|--0--9-----|
E|-----7-----|-----2-----|-----7-----|-----2-----|-----7------|--10--9-----|--3--2-------|-----9-----|
C|--7--------|--2--------|--7--------|--2--------|--7---------|------9-----|-----2-------|--2--9-----|
G|-----7-----|-----2-----|-----7-----|-----2-----|-----7------|------------|-------------|-----------|

[Verse 2]

A|--9--9-----|-----4-----|-----9-----|-----4-----|-----9--12--|--10--9--4--|--2--2h4--5--|--0--9-----|
E|-----7-----|-----2-----|-----7-----|-----2-----|-----7------|--10--9-----|--3--2-------|-----9-----|
C|--7--------|--2--------|--7--------|--2--------|--7---------|------9-----|-----2-------|--2--9-----|
G|-----7-----|-----2-----|-----7-----|-----2-----|-----7------|------------|-------------|-----------|

[Verse 3]

A|-----9-----|------9-----|--7--------|------------|-----5-----|
E|-----9-----|------7-----|-----7-----|-----10-----|-----5-----|
C|--6--9-----|--11--------|--4--7-----|--4--11-----|--2--5-----|
G|--6--------|--11--7-----|-----------|-----12-----|-----------|

[Verse 4]

A|-----2--3--|--7--7-----|--5--3--2--|--5--5-----|-----5--5--|
E|--5--0-----|-----7--7--|-----0-----|-----0-----|-----2-----|
C|-----0-----|--2--7-----|--2--2-----|--2--0-----|--2--0-----|
G|--2--2-----|-----7-----|-----0-----|-----2-----|-----2-----|

[Verse 5]

A|--7----------|--12---------|--7--5--2--|--5--5-----|-----5--5--|
E|-----8-------|--10--8------|-----0-----|-----0-----|-----2-----|
C|--2--9-------|------9------|--2--2-----|--2--0-----|--2--0-----|
G|-----10--12--|------10--7--|-----0-----|-----2-----|-----2-----|

[Verse 6]

A|-----------|--9--9-----|--2--2--2--|--4--4--7--|--4--4--7--|-----5--7--|--10--------|--5--------|
E|--3--7-----|-----9-----|-----5-----|-----0-----|-----2-----|--2--5--7--|--8---------|--2--------|
C|--4--9-----|--6--9-----|-----2-----|--4--2-----|--4--2-----|--4-----7--|--9---------|--2--------|
G|-----0-----|-----------|-----2-----|-----2-----|-----2-----|-----4--7--|------------|--2--------|


************************************

| h  Hammer on
| v  Vibrato 
| p  Pull-Off
| /  Slide up
| \  Slide down
 
************************************                               

            
            
Suggest correction
Creating personal tab
Creating personal tab
You can edit any tab online and save it as your Personal.

You can edit, replace or remove any tab part or add personal notes – all changes will be seen only by you.

Personal tabs can be accessed anytime from any device, even offline.
Learn more »
Give kudos to tab author, rate the tab!
1 2 3 4 5
comments
print report bad tab
guest
You may want to rate the tab now too:
select rating
Wanna post a correction for this tab? Suggest correction