Oops, an error
Loading. Please wait.

Siegfried Bass Tab

988 views 6 this week
no commentswrite comment
1 2 3 4 5
please rate
add to favorites
launch autoscroll
font size
0
reset
guitar tuner
Autoscroll
slow
fast
+/-
esc
set tempo
stop
Help us to improve Ultimate-Guitar.com Take our survey!
×
Author
Song: Siegfried
Album: Bending new corners
Tuning: eadg
website: http://www.eriktruffaz.com/

for corrections and stuff: psychedelik.polka@gmail.com

INTRO (x1)
g----14h15-14------14h15-14---------14h15-14-|
d--5-----------0-5----------------5----------|
a---------------------------0-5-5------------|
e--------------------------------------------|

(lots...)
g-----14h15-14---------14h15-14-|
d-0-5----------------5----------|
a--------------0-5-5------------|
e-------------------------------|

CHORUS (not too sure about this, sounds pretty close though)
g-----------------9---0----------------------------|
d-----2------------9---9-------2-------------------|
a------2---2--------7-----------2---2---------7----|
e-0-----3-0-----0----------0-----3-0-----5-----5---|

VERSE
g---------14h15-14-|
d-------5----------|
a-0-5-5------------|
e------------------|

CHORUS

BRIDGE (some variations here)
g----------------------|
d-7h8-7----------7h8-7-|
a--------0-5-5---------|
e--------------3-------|

CHORUS (some variations)

VERSE

end on open E
Suggest correction
Give kudos to tab author, rate the tab!
1 2 3 4 5
comments
print report bad tab
guest
You may want to rate the tab now too:
select rating
Wanna post a correction for this tab? Suggest correction