Oops, an error
Loading. Please wait.

You Sailor Tab

1,077 views 1 this week
no commentswrite comment
1 2 3 4 5
x 4
add to favorites
launch autoscroll
font size
0
reset
how to read this tab
guitar tuner
Autoscroll
slow
fast
+/-
esc
set tempo
stop
Help us to improve Ultimate-Guitar.com Take our survey!
×
-------------------------------------------------------------------------------
You, Sailor – Erin McKeown
-------------------------------------------------------------------------------
Tabbed by: Megan
E-mail: meg-m-23@hotmail.com

Don't think it's 100% accurate but I tried! First time submitting a tab so feel free to 
correct me if there's any mistakes :)

Tuning: Standard

INTRO:
e|--------------------------------------------------------------------------|
B|--------------------------------------------------------------------------|
G|---------1--------1--------1----------------------------------------------|
D|--2-2-2-2--2-2-2-2--2-2-2-2--2-2-2-2--------------------------------------|
A|--------------------------------------------------------------------------|
E|-0-0-0-0--0-0-0-0--0-0-0-0--0-0-0-0---------------------------------------|

VERSE:
e|--------------------------------------------------------------------------|
B|--------------------------------------------------------------------------|
G|--------------------------------------------------------------------------|
D|--2-2-2-2-2-2-2-2-2-2-2-2-2-2-2-2-2-2-2-2-2-2-2-2-2-2-2-2-2-2-2-2---------|
A|-----0-2-----0-2-----0-2-----0-2-----0-2-----0-2-----0-2-----0-2----------|
E|-0-0-----0-0-----0-0-----0-0-----0-0-----0-0-----0-0-----0-0--------------|
1.No longer...                                ...warmer climes
2.What's this...                              ...stripes and stars
3.You, sailor...                              ...lost, then found
CHORUS:
e|--------------------------------------------------------------------------|
B|--------------------------------------------------------------------------|
G|-----------1-1-1-1----------1-1-------------------------------------------|
D|--2-2-4-4-2-2-2-2--2-2-4-4-2-2--2-2-2-------------------------------------|
A|-4-4-6-6----------4-4-6-6------0-2----------------------------------------|
E|----------------------------------0---------------------------------------|
       I am a king      You...
Suggest correction
comments
print report bad tab
guest
You may want to rate the tab now too:
select rating
Wanna post a correction for this tab? Suggest correction