Oops, an error
Loading. Please wait.

Malaguena Tab

version 3
version 3

Whole song

Interactive

127,798 views 186 this week
1 commentread comment
1 2 3 4 5
excellent!
x 9
add to favorites
launch autoscroll
font size
0
reset
how to read this tab
guitar tuner
Autoscroll
slow
fast
+/-
esc
set tempo
stop
Help us to improve Ultimate-Guitar.com Take our survey!
×
Contributor
Difficulty
advanced
e|--0-0-0--|----1-3--|---------|---------|-----------|
B|--0-0-0--|--0------|--3-1-0--|--1---0--|--3-1-0----|
G|*-1-1-1--|--1------|---------|----2----|--------2--|
D|*-2-2-2--|--0------|---------|---------|-----------|
A|--2-2-2--|---------|---------|--0------|-----------|
E|--0-0-0--|--0------|--0------|---------|----0------|

e|---------|---------|--------0----|------0----|
B|--0------|---------|------0------|----0------|
G|----2-0--|--2-0----|----1--------|--1-------*|
D|---------|------3--|----------2--|--------0-*|
A|---------|---------|-------------|-----------|
E|--3------|--1------|--0----------|-----------|

e|----0---0---0--|----0----0---0--|----0---0---0--|----0----0----|
B|----------0----|-----------0----|------1---0----|--------------|
G|*--------------|------1---------|--2------------|--2---0------*|
D|*-2---1--------|--2-------------|---------------|-----------3-*|
A|---------------|----------------|---------------|--------------|
E|---------------|----------------|---------------|--------------|

e|----0---0---0--|----0---0---0--|----0----0----0--|----0---0---0--|
B|----------0----|--3---1---0----|--1---------0----|--1---0--------|
G|------1--------|---------------|-------2---------|----------2----|
D|--2------------|---------------|-----------------|---------------|
A|---------------|---------------|-----------------|---------------|
E|---------------|---------------|-----------------|---------------|

e|----0---0---0--|----0---0---0--|---------|--0--|--0-0-0--|
B|--0------------|---------------|------0--|--0--|--0------|
G|---------------|---------------|----1----|--1--|--1------|
D|------2---0----|--2---0--------|--2------|--2--|---------|
A|---------------|----------3----|---------|--2--|---------|
E|---------------|---------------|---------|--0--|--0------|

e|--0-0----|--1-0----|---------|---------|---------|---------|
B|------3--|------3--|--1------|--1-1-1--|--1-1-0--|---------|
G|---------|---------|------0--|---------|---------|--2------|
D|---------|---------|----2----|---------|--2------|------3--|
A|---------|---------|--3------|--3------|---------|----3----|
E|--0------|--0------|---------|---------|---------|--1------|

e|---------|---------|---------|----0----|--1-0----|---------|
B|--3-1-0--|---------|----0-1--|--3---3--|------3--|--1------|
G|---------|--2------|--2------|---------|---------|------0--|
D|---------|------3--|---------|--3------|---------|----2----|
A|--3------|----3----|---------|---------|---------|--3------|
E|---------|--1------|--1------|---------|--3------|---------|

e|---------|--1-3-1--|--1-0-1-3p1--|--0--|----0---0---0--|
B|--1------|---------|--0----------|--0--|----0---0---0--|
G|------0--|---------|--2----------|--1--|---------------|
D|----2----|--0------|--0----------|--2--|---------------|
A|--3------|---------|-------------|--2--|----------2----|
E|---------|---------|-------------|--0--|--0---4--------|

e|----0---0---0--|----0---0--0--|----0---0---0--|----0---0---0--|
B|----0---0---0--|----1---1--1--|----1---0---0--|----0---0---0--|
G|---------------|--------------|---------------|---------------|
D|---------------|--------------|---------------|---------------|
A|----------2----|--0---3---2---|--0------------|----------2----|
E|--0---4--------|--------------|------3---1----|--0---4--------|

e|----0---0---0--|----0---0----|----0---0---0--|----0-----0-----0----|
B|----0---0---0--|----1---1----|----1---1---1--|------0-----0-----0--|
G|---------------|-------------|---------------|*-------1-----4------|
D|---------------|-------------|--0---2---3----|*-2------------------|
A|----------2----|--0---2---3--|---------------|---------------------|
E|--0---4--------|-------------|---------------|---------------------|

e|----0-----0-----0----|----0-----0-----0----|----0-----0-----0----|
B|------0-----0-----0--|------1-----5-----3--|------1-----0-----0--|
G|--------1-----4------|--2-----5-----4------|--2-----0-----------*|
D|--2------------------|---------------------|--------------3-----*|
A|---------------------|---------------------|---------------------|
E|---------------------|---------------------|---------------------|

e|---------|--0-0--|--0-0----|--1-0----|---------|--0------|---------|
B|------0--|--0----|--1---3--|------1--|--3-3-1--|--0-3-0--|--1-1-0--|
G|----1----|--1----|--2------|---------|--0------|--0------|--2------|
D|--2------|--2----|---------|---------|--0------|---------|--3------|
A|---------|--2----|--0------|--0------|---------|---------|---------|
E|---------|--0----|---------|---------|--3------|---------|--1------|

e|---------|---------|----0--|--5-5-4--|--3-1-0--|--3-3-2--|--1-0----|
B|--3-1----|---------|--0----|---------|---------|---------|------3--|
G|--2---2--|--1-1-2--|--1----|---------|---------|---------|---------|
D|--3------|--2------|--2----|---------|---------|---------|---------|
A|---------|--2------|-------|--0------|--0------|---------|---------|
E|---------|--0------|--0----|---------|---------|--3------|--3------|

e|---------|--0-0----|---------|---------|-----------|---------|
B|--3-1-3--|------4--|--3-1-0--|--1-1-1--|--3-1-0----|--0-0-0--|
G|---------|---------|---------|---------|--------2--|---------|
D|---------|---------|---------|---------|-----------|---------|
A|---------|---------|---------|--0------|-----------|---------|
E|--1------|--0------|--0------|---------|----0------|--3------|

e|-----------|---------|---------|--0-0-0-0-0--|--0-0-0-0--|
B|--1-0------|----0-1--|--1-3-4--|----0-0-0-0--|--0-0-0-0--|
G|------2-0--|--2------|---------|----1-1-1-1--|--1-1-1-1--|
D|-----------|---------|---------|----2-2-2-2--|--2-2-2-2--|
A|-----------|---------|---------|-------------|-----------|
E|----3------|--1------|---------|--0----------|-----------|

e|----0---0---0--|----0---0---0--|----0---0---0--|----0---0---0--|
B|----------0----|----------0----|------1---0----|---------------|
G|------1--------|------1--------|--2------------|--2---0--------|
D|--2------------|--2------------|---------------|----------3----|
A|---------------|---------------|---------------|---------------|
E|---------------|---------------|---------------|---------------|

e|----0-0---0-0---0-0--|----0-0---0-0---0-0--|----0-0---0-0---0-0--|
B|--------------0------|--------------0------|--------1------------|
G|--------1------------|--------1------------|--2-----------0------|
D|--2------------------|--2------------------|---------------------|
A|---------------------|---------------------|---------------------|
E|---------------------|---------------------|---------------------|

e|----0-0---0-0---0-0--|----0-0---0-0---0-0--|----0-0---0-0---0-0--|
B|---------------------|--------------0------|--3-----1-----0------|
G|--2-----0------------|--------1------------|---------------------|
D|--------------3------|--2------------------|---------------------|
A|---------------------|---------------------|---------------------|
E|---------------------|---------------------|---------------------|

e|----0-0---0-0---0-0--|----0-0---0-0---0-0--|----0-0---0-0---0-0--|
B|--3-----1-----0------|--1-----------0------|--1-----------0------|
G|---------------------|--------2------------|--------2------------|
D|---------------------|---------------------|---------------------|
A|---------------------|---------------------|---------------------|
E|---------------------|---------------------|---------------------|

e|----0-0---0-0---0-0--|----0-0---0-0---0-0--|----0-0-0-0--|
B|--0------------------|---------------------|----0-0-0-0--|
G|--------2-----0------|--2-----0------------|----1-1-1-1--|
D|---------------------|--------------3------|--2-2-2-2-2--|
A|---------------------|---------------------|-------------|
E|---------------------|---------------------|-------------|

e|--0-0-0-0-0--|--0-0-0-0-0--|--0-0-0-0-0--|--0-0-0-0-0--|--0-0-0-0-0--|
B|--0-0-0-0-0--|--0-0-0-0-0--|--0-0-0-0-0--|--0-0-0-0-0--|--0-0-0-0-0--|
G|--2-2-2-2-2--|--2-2-2-2-2--|--2-2-2-2-2--|--2-2-2-2-2--|--2-2-2-2-2--|
D|--3-3-3-3-3--|--3-3-3-3-3--|--3-3-3-3-3--|--3-3-3-3-3--|--3-3-3-3-3--|
A|--2----------|--2----------|--2----------|--2----------|--2----------|
E|--0----------|--0----------|--0----------|--0----------|--0----------|

e|--0--|--12-----|--0--|
B|--0--|---9-----|--0--|
G|--1--|---9-----|--1--|
D|--2--|---9-----|--2--|
A|--2--|---9-----|--2--|
E|--0--|---9-----|--0--|



************************************

| p  Pull-off

************************************
Suggest correction new What's this?
You can suggest a correction to this tab. Community and Mods will review your correction and vote to approve or reject it.
comments
print report bad tab
1 comment total.
0 reply
F3V3RLAST 21 wrote on May 25 2011, 04:57 pm

this is excellent. However, one suggestion. Add the chord names above for hand position.

guest
You may want to rate the tab now too:
select rating
Please do not post tabs as comments. Select "correction" instead!