Oops, an error
Loading. Please wait.

Cose Della Vita Tab

version 2
version 2

Whole song

Interactive

9,521 views 30 this week
1 commentread comment
1 2 3 4 5
x 4
add to favorites
launch autoscroll
font size
0
reset
how to read this tab
guitar tuner
×
Best way to learn
"Cose Della Vita"
Autoscroll
slow
fast
+/-
esc
set tempo
stop
Author
Difficulty
Cose Della Vita
Eros Ramazzotti
Petrinčić Mirko-petrincic.m@gmail.com

[Dist.]
e|-------------------------------------------------------------0-------|
B|-------------------------------------------------------------0-------|
G|---------------------------------------------------------------------|
D|--2---2---2--------2---2---2-------2---2---2-----2--2----------------|
A|--2---2---2--------2---2---2-------2---2---2-------------------------|
E|--0---0---0--------0---0---0-------0---0---0-------------------------|

                                                    live not on record
                                                    version about X12
e|------------------------0--------------------------------------------|
B|------------------------0--------------------------------------------|
G|------------------------------4------------------(7-h-9-p-7-h-9)-----|
D|--2---2---2------2------------2--------------------------------------|
A|--2---2---2----------------------------------------------------------|
E|--0---0---0----------------------------------------------------------|

[S.L.]
e|---------------------------------------------------------------------|
B|---------------------------------------------------------------------|
G|---------------------------------------------------------------------|
D|---------------------------------------------------------------------|
A|-------------------------------------------------0-------------------|
E|--0---1---2-----------0---1----2-----------0-----------2-------------|

F#m D A E F#m D A E

[Sono   umane   situazioni  !      Quei    momenti  fra  di  noi  !]
[S.L.]
e|---------------------------------------------------------------------|
B|---------------------------------------------------------------------|
G|---------------------------------------------------------------------|
D|---------------------------------------------------------------------|
A|-------0-------------------------------------------------------------|
E|--0---------2--------------------------------------------------------|

F#m      D                A      E   F#m     D                 A     E
I    distacchi  e  i  ritorni      !  Da  capirci  niente  poi !

Bm     A          E
Gia ... come  vedi

Bm       A         E    F#m   D    A    E
Sto  pensando  a  te      ... si    ...  da  un  po !

[SOLO 1]
(Dist.)
e|---------------------------------------------------------------------|
B|---------10----12b-r-(13)--12---10---12--12---10-------10--10--------|
G|--/-11---------------------------------------------11----------------|
D|---------------------------------------------------------------------|
A|---------------------------------------------------------------------|
E|---------------------------------------------------------------------|

e|---------------------------------------------------------------------|
B|------------------------10----------------------10---12b-r-(13)------|
G|--9----------9-h-11----------11--------/-11--------------------------|
D|-------11------------------------------------------------------------|
A|---------------------------------------------------------------------|
E|---------------------------------------------------------------------|

e|--------------------------------------------12--12-h-14--------------|
B|--12---10---12---12---10---------12-/-14-----------------------------|
G|----------------------------11---------------------------------------|
D|---------------------------------------------------------------------|
A|---------------------------------------------------------------------|
E|---------------------------------------------------------------------|


e|---12--------------14-------17----14---------------------------------|
B|------------/-14-----------------------------------------------------|
G|---------------------------------------------------------------------|
D|---------------------------------------------------------------------|
A|---------------------------------------------------------------------|
E|---------------------------------------------------------------------|

[F#m    D               A    E]
[Sono  umane  condizioni !]
(S.L.)
e|---------------------------------------------------------------------|
B|---------------------------------------------------------------------|
G|---------------------------------------------------------------------|
D|---------------------------------------------------------------------|
A|---------------------------------------------------------------------|
E|---0----1----2-------------------------------------------------------|


[F#m    D                 A    E]
(Stare  bene  oppure  no !)
e|---------------------------------------------------------------------|
B|---------------------------------------------------------------------|
G|---------------------------------------------------------------------|
D|---------------------------------------------------------------------|
A|----------0----------------------------------------------------------|
E|----0-----------2----------------------------------------------------|

[F#m   D                 A     E]
(Puo  dipendere  daí  giorni !)
e|---------------------------------------------------------------------|
B|---------------------------------------------------------------------|
G|---------------------------------------------------------------------|
D|---------------------------------------------------------------------|
A|---------------------------------------------------------------------|
E|----0-----1-----2----------------------------------------------------|

F#m    D                A   E
Dale  nostalgie  che  ho !

Bm      A           E
Gia ... come  vedi

Bm       A            E
Sto  pensando  a  te

      A                 C#m                    Bm
Come  se  queste  tempo  non  fosse  passato  mai
e|--------------------------5-----------------------------------------|
B|---------------------3----------------------------------------------|
G|---------------4----------------------------------------------------|
D|--------------------------------------------------------------------|
A|--------------------------------------------------------------------|
E|--------------------------------------------------------------------|

           F#m
       (Dove  siamo  stati , cosa  siamo  poi)
e|------------------4-------------------------------------------------|
B|------------------------7-------------------------------------------|
G|-----------------------------6--------------------------------------|
D|--------------------------------------------------------------------|
A|--------------------------------------------------------------------|
E|--------------------------------------------------------------------|

           A                C#m                  Bm
       (Confinanti  di  cuore  solo  che  ognuno  sta)
e|----------------------------5---------------------------------------|
B|-----------------------3--------------------------------------------|
G|------------------4-------------------------------------------------|
D|--------------------------------------------------------------------|
A|--------------------------------------------------------------------|
E|--------------------------------------------------------------------|

        F#m           C#m                Bm
Dietro  gli  steccati  degli  orgogli  suoi
                     F#m         D       A      E
Sto  pensando  a  te
                     F#m         D       A      E
Sto  pensando  a  noi ...

[SOLO 2]
(Dist.)
e|--------------------------------------------------------------------|
B|----------14b-(16)-----14-r------12-----12-h-14---------------------|
G|------------------------------------------------------13b-r(15)-----|
D|----13--------------------------------------------------------------|
A|--------------------------------------------------------------------|
E|--------------------------------------------------------------------|

e|--------------------------------------------------------------------|
B|---12-h-14----------------------------------------------------------|
G|----------------11b--(13)--11b-r(13)------8--11b-r(13)--------------|
D|--------------------------------------------------------------------|
A|--------------------------------------------------------------------|
E|--------------------------------------------------------------------|

e|--------------------------------------------------------------------|
B|-----------------------------------------------------------11-h-12--|
G|----------------------------------------------------11--------------|
D|---13-/-11----9---8-h-9-p-8---------9-/-11-----13-------------------|
A|------------------------------11------------------------------------|
E|--------------------------------------------------------------------|

e|--------------------------------14----16----------------------------|
B|---p-11----------14-/-16--------------------------------------------|
G|------------11------------------------------------------------------|
D|--------------------------------------------------------------------|
A|--------------------------------------------------------------------|
E|--------------------------------------------------------------------|

[G#m     E              B    F#]
(Sono  cose  della  vita  !)
(S.L.)
e|---------------------------------------------------------------------|
B|---------------------------------------------------------------------|
G|---------------------------------------------------------------------|
D|---------------------------------------------------------------------|
A|-------------------2-------------------------------------------------|
E|------------2--------------4-----------------------------------------|

[G#m        E                 B  F#]
(Vanno  presse  un  po  cosi)
e|---------------------------------------------------------------------|
B|---------------------------------------------------------------------|
G|---------------------------------------------------------------------|
D|---------------------------------------------------------------------|
A|--------------------------2------------------------------------------|
E|-------------------2--------------4----------------------------------|

[G#m          E            B    F#      G#m        E               B   F#]
[E  gia  stata  una  fatica !             Arrivare  fino  a  Qui]

]C#m    B         F#/Bb]
[Gia ...   come  vedi]
[Dist.]
e|---------------------------------------------------------------------|
B|-----------------------14b----14---12---14---------------------------|
G|----------------13---------------------------------------------------|
D|---------------------------------------------------------------------|
A|---------------------------------------------------------------------|
E|---------------------------------------------------------------------|

C#m           B            F#
[Io  sto  ancora  in  piedi , perche]

e|-------------------------------16-----19-----16----------------------|
B|----------14-/-16----19----------------------------------------------|
G|---------------------------------------------------------------------|
D|---------------------------------------------------------------------|
A|---------------------------------------------------------------------|
E|---------------------------------------------------------------------|

[G#m                               E]
[Sono  umani  tutti  i  sogni  miei]

[B F#]

[Con  le  mani  io  li  prenderei , si  perche]
e|--------------------19b-----19-----16--------------------------------|
B|-------------16------------------------------------------------------|
G|---------------------------------------------------------------------|
D|---------------------------------------------------------------------|
A|---------------------------------------------------------------------|
E|---------------------------------------------------------------------|

G#m                         E
Sono  umani  questi  sogni  miei
B                              F#
Con  le  mani  io  li  prenderei
Am        F             C    G  Am        F                C            G
    Sono  cose  della vita !      Ma  la  vita  poi  dov`e , dov`e , dov`e
Am          F               C  G   Am       F           C
    Se  da  quando  e  partita !      Un  inseguimento  e  poi  dov`e
   G
Poi dov`e

(Dm      C         G/B)
[Gia ...  come  vedi]
e|---------------------------------------------------------------------|
B|------------------15b---15---13---15----13---12----------------------|
G|-----------12--------------------------------------------14----------|
D|---------------------------------------------------------------------|
A|---------------------------------------------------------------------|
E|---------------------------------------------------------------------|

[Dm               C         G]
[Sto  pensando  ancora  a  te]
e|---------------------------------------------------------------------|
B|----------------------13---12----15---13---15-/-17---15---13---------|
G|----12-/-14--12------------------------------------------------------|
D|---------------------------------------------------------------------|
A|---------------------------------------------------------------------|
E|---------------------------------------------------------------------|

[C                Em                   Dm7]
[Questa  notte  che  passa  piano  accanto  a  me]
e|---------------------------8-----------------------------------------|
B|-----------------------6---------------------------------------------|
G|------------------7--------------------------------------------------|
D|---------------------------------------------------------------------|
A|---------------------------------------------------------------------|
E|---------------------------------------------------------------------|

[Am7]
[Cerco  di  affrontarla , afferrarla]
e|-------x--------7-/--------------------------------------------------|
B|-------x-------10-/--------------------------------------------------|
G|-------x--------9-/--------------------------------------------------|
D|-------x--------7-/--------------------------------------------------|
A|---------------------------------------------------------------------|
E|---------------------------------------------------------------------|

[C                  Em                          Dm7]
[E  se  prendo  le  curve  del  cuore  spandando  un  po]
e|----------------------------------8----------------------------------|
B|-----------------------------6---------------------------------------|
G|------------------------7--------------------------------------------|
D|---------------------------------------------------------------------|
A|---------------------------------------------------------------------|
E|---------------------------------------------------------------------|

[Am         Em              Dm7]
[Voglio  provocarla  anche  adesso  che , che]
e|---------------------------------------------------------------------|
B|---------------------------------------------------------------------|
G|------------7----x----x------7--/------------------------------------|
D|------------7----x----x------7--/------------------------------------|
A|------------5----x----x------5--/------------------------------------|
E|---------------------------------------------------------------------|

[Am          F        C        G]
[Sto  pensando  a  te ...]

[SOLO  3]
e|---------------------------------------------------------------------|
B|------------13--15br-(17)-15--13--15--15--13-------------------------|
G|--12-/-14------------------------------------------------------------|
D|---------------------------------------------------------------------|
A|---------------------------------------------------------------------|
E|---------------------------------------------------------------------|

e|---------------------------------------------------------------------|
B|---------13------------------------------------------13---15br-------|
G|---12---------12----------14--------------12-/-14--------------------|
D|-------------------14------------------------------------------------|
A|----------------------------------12---------------------------------|
E|---------------------------------------------------------------------|

e|--------------------------------------------------15--17--15---------|
B|---(17)-15----13---15---15--13---------/-17--------------------------|
G|---------------------------------14----------------------------------|
D|---------------------------------------------------------------------|
A|---------------------------------------------------------------------|
E|---------------------------------------------------------------------|

e|--17b----------------------------------------------------------------|
B|----------------------13----15br-(17)-15--13---15--15--13------------|
G|-----------12-/-14---------------------------------------------------|
D|---------------------------------------------------------------------|
A|---------------------------------------------------------------------|
E|---------------------------------------------------------------------|

e|---------------------------------------------------------------------|
B|--------13-----------------------------------------------------------|
G|--12---------12---------14-------------------------------------------|
D|------------------14-------------------------------------------------|
A|--------------------------------12-----------------------------------|
E|---------------------------------------------------------------------|

************************************

| h    Hammer-on
| p    Pull-off
| (n)  Ghost note
| r    Release
| b    Bend
| /    Slide up
| x    Dead note
| br   Bend release

************************************
Suggest correction
comments
print report bad tab
1 comment total.
0 reply
Wild_Rose 130 Aug 03, 2014 05:12 AM

AWESOME!!!!!!

guest
You may want to rate the tab now too:
select rating
Wanna post a correction for this tab? Suggest correction