Oops, an error
Loading. Please wait.

No Estamos Solos Tab

5,832 views 9 this week
1 commentread comment
1 2 3 4 5
excellent!
x 2
add to favorites
launch autoscroll
font size
0
reset
how to read this tab
guitar tuner
Tab Pro tools
  • play this tab
  • loop segment
  • change instrument
  • show fretboard
  • metronome
Autoscroll
slow
fast
+/-
esc
set tempo
stop
Contributor
Cantantes: Eros Ramazzotti ft. Ricky Martin
Cancion: No estamos Solos
Afinacion: Standard
Transcrito por: Carlos Ramirez

  Cm           Fm       G           Cm           Fm         G
e|-------------------------------------------------------------------------|
B|----------------------------------------------------------8---8----8-----|
G|--8h10--8----8--10--8----8--8h10-----8h10--8----8--10--8--10b-10b--10b---|
D|----------10----------10---------------------10--------------------------|
A|-------------------------------------------------------------------------|
E|-------------------------------------------------------------------------|


Fm                     Cm
  Son las ganas de cambiar la realidad,
Fm                     Cm
  Las que hacen que me sienta vivo
Ab     Bb         Eb           Ab
Y buscaré los que quieren como yo
Fm      G          Cm  Fm  G     Cm    Fm  G
  Ese sueño realizar….      realizar


Fm                      Cm
  En un libro que no se llego a escribir
Fm                 Cm
  leo normas para usar la vida
Ab      Bb        Eb        Ab
pero yo se que ninguna seguiré
Fm              G
   Viviré el momento

Am
   Aunque hay distancia
        F
ya no estamos solos
C                        G
hijos de una misma humanidad
Am                       F
almas que volando buscan ideales
C                    G
Y con valentía encontrara
Dm                          Am
cruza la fontrera de cualquier ideologia
C                       G
La emoción nos unirá en esta gran idea
F         G       C        F
el mundo ahora podemos cambiar
     Am             G                  Cm   Fm  G
Eso quieres tu y contigo lo voy a intentar
               Cm  Fm  G
lo voy a intentar

Fm                    Cm
  En las paginas en blanco tu y yo
Fm                  Cm
  Escribimos todos nuestros sueños
Ab      Bb      Eb       Ab
y nadie ya el futuro robará
Fm     G
  de nuestras manos


Am
Aunque hay distancia
         F
ya no estamos solos
C                    G
entre lunas nace la verdad
Am                      F
almas confundidas somos corazones
C                          G
con la misma idea de libertad

libertad

(solo)
 Dm                     Am            Dm
e|-1-1-1-0-0-------0----------------------------------------0-3-0-----|
B|-----------3-2-2---3--1-0------0----------------------3-2-----------|
G|---------------------------2-1---2---------------2-0h2--------------|
D|-------------------------------------3-2-0---0h3--------------------|
A|--------------------------------------------------------------------|
E|--------------------------------------------------------------------|
   Am                             Dm
e|------5-----5-----5-----------------1p0--------1-1-------|
B|--3h5---3h5---3h5----5-3---4-------------3-2-3-----------|
G|-------------------------5---5-2-------------------------|
D|---------------------------------------------------------|
A|---------------------------------------------------------|
E|---------------------------------------------------------|
               Am                  F              E
e|---1-0--------------------------------------------------------------------|
B|-------3-1-3---1---1---------------1---1---1-3-5-5h6-5h6-5h6-5h6-5h6-5\---|
G|--------------2--1---3-0---2-----2---0---2--------------------------------|
D|-------------------------4------------------------------------------------|
A|--------------------------------------------------------------------------|
E|--------------------------------------------------------------------------|

Am
Aunque hay distancia
        F
ya no estamos solos
C                         G
nuestra dudas no nos detendrá
Dm                        Am
cruza la frontera y no conoce geografia
  C                       G
la emoción que nos regala esta gran idea
Am
aunque hay distancia
         F
ya no estamos solos
C                    G
juntos buscaremos la verdad
Am                             F
almas que se encuentra vuelan corazones
C                       G
con la misma idea de libertad
F         G       C         F
un mundo nuevo en el que vivir
           G           Am  F  E
ahora no podemos conseguir
      Am  F  E
conseguir…..
          Am  F  E          Am F  E
o junto a ti..      junto a mi
comments
We did not receive enough feedback on this tab! Please rate:
print report bad tab
1 2 3 4 5
1 comment total.
0 reply
boosted928 wrote on November 29 2010, 07:53 pm

it sounds great! just 1 thing. at the end, they play then intro, but in a different part of the neck.


e|----------------------------------------------
B|----------------------------------------------
G|----------------------------------------------
D|----12-10--10-12-10---10-12~------------------
A|---------12---------12------------------------
E|----------------------------------------------

e|----------------------------------------------
B|----------------------------------------------
G|----------------------9--9--9~----------------
D|----12-10--10-12-10--12-12-12~----------------
A|---------12-----------------------------------
E|----------------------------------------------

I want to post or [tab]
guest
You may want to rate the tab now too:
select rating
Please do not post tabs as comments. Select "correction" instead!