Oops, an error
Loading. Please wait.

Misty Tab

version 1
version 1

Whole song

Interactive

58,147 views 141 this week
2 commentsread comments
1 2 3 4 5
x 23
add to favorites
×
Save as Personal and add changes to this tab that will be seen only by you. Learn more ›
×
You can save this tab as Personal to edit and correct it or add notes. All changes will be seen only by you. Learn more »
save as personal
new!
launch autoscroll
font size
0
reset
how to read this tab
guitar tuner
Autoscroll
slow
fast
+/-
esc
set tempo
stop
Note: Play the first two lines of tab, and part (1.).  Repeat the
first two lines of tab, and then jump down to (2.), continuing through
to the bridge, and the last verse.

        Dmaj7           Am7     D7b9    Gmaj7           Gm7     C13
e |--5--------------------7-7-5-7-5------------------3-5-5-5-3-5---3-|
B |---7---------------------5---4---7---------------3--3---3---3-----|
G |-----6---6---6-----4-5---5---5-----7------------3---3---3---3-----|
D |-----7---7---7---7---5---5---4-------4--4--4-4-5----3-------2-----|
A |-----5---5---5-------0---0---5-------5--5--5--------5-------3-----|
E |-------------------------------------3--3--3--------3-------------|

   Dmaj7    Bm7      Em7     A7b9
e -2----3-5------0-2-3--------------0-|
B -2--------3----------0---------2-3--|
G -2--------2------------0---3--------|
D -0--------4------------0---5--------|
A ----------2----------------4--------|
E -------------------0-------5--------|

(1.)
   F#7b5   B7      E7b5   A7
e -2-----------------------------||
B -----1-------0-------3---2-----||
G ---3---------2-------3---0-----||
D -----------1-------2-----2-----||
A --------2----------------0-----||
E -2---------------0-------------||

(2.)
   D6
e ---------------------------5-7-|
B -3-------------------3-5-6-----|
G -4-----------------------------|
D -4-----------------------------|
A -5-----------------------------|
E -------------------------------|

   Am7           D7b9              Gmaj7
e -8-8-8-8-8---------8-10-11-10-8--7-7-7-7-7----------------7-8-10-|
B -5---8---5-----4--------------8--7---7---7-----5--5--5-----------|
G -5-------------5--------------8--7---7---7-----4--4--4-7-9-------|
D -5-------------4--------------10-9-------------5--5--3-----------|
A -0-------------5-----------------10------------------------------|
E -----------------------------------------------------------------|

   G#m7              C#7       E7       F#m7b5   B7      Em7   A7
e -9--9--9--9--9---------9-----12-----------------------------------5--|
B -9-----9-----9-----------12--12-14-12--10--10--10--10--8--8--5-----7-|
G -11----------------10--------13--------9---9---8---8---7--7--6-------|
D -9-----------------9---------12--------10--10--9---9---9--9--5-------|
A -11----------------11------------------9---9-----------7--7--7-------|
E -------------------9-----------------------------------------5-------|

    Dmaj7           Am7     D7b9    Gmaj7           Gm7     C13
e --------------------7-7-5-7-5-------------------3-5-5-5-3-5---3-|
B ----------------------5---4---7----------------3--3---3---3-----|
G --6---6---6-----4-5---5---5-----7-------------3---3---3---3-----|
D --7---7---7---7---5---5---4-------4---4--4-4-5----3-------2-----|
A --5---5---5-------0---0---5-------5---5--5--------5-------3-----|
E ----------------------------------3---3--3--------3-------------|

   Dmaj7    Bm7      Em7     A7b9     D
e -2----3-5------0-2-3--------------0-2-|
B -2--------3----------0---------2-3--3-|
G -2--------2------------0---3--------2-|
D -0--------4------------0---5--------0-|
A ----------2----------------4--------0-|
E -------------------0-------5----------|
Suggest correction
comments
print report bad tab
2 comments total.
0 reply
jchung1029 17 Jul 22, 2016 03:19 PM

Tried emailing, but it seems like your former school's domain has been changed!

I was wondering about how you would finger C13:

E: 5
B: 3
G: 3
D: 2
A: 3
E: X

I was thinking about playing it like a sweep, since barring it won't give me the E on the D string, but I was wondering if you had a more elegant solution.

guest
Wanna post a correction for this tab? Suggest correction