Oops, an error
Loading. Please wait.

4 Leaf Clover bass

331 views 3 this week
no commentswrite comment
1 2 3 4 5
3 more votes to show rating
add to favorites
×
Save as Personal and add changes to this tab that will be seen only by you. Learn more ›
×
You can save this tab as Personal to edit and correct it or add notes. All changes will be seen only by you. Learn more »
launch autoscroll
font size
0
reset
guitar tuner
edit
Autoscroll
slow
fast
+/-
esc
set tempo
stop
Author
Difficulty
                                  4 Leaf Clover
                                   Erykah Badu

Bass                                                            David Lewis
                                                                Wayne Lewis


Arranged for:
5 String Electric Bass
4 String Electric Bass

Version 1 - 5 String

Intro

|-----------------|-----------------|-----------------|-----------------|
|-----------------|-----------------|-----------------|-----------------|
|-----------------|-----------------|-----------------|-4---------------|
|-----------------|-----------------|-----------------|-----------------|
|-----------------|-----------------|-----------------|---------2-------|
  W                  W                 W                 H       H

Verse 1

|-----------------|-----------------|-----------------|-----------------|
|-----------------|-----------------|-----------------|-----------------|
|-----------------|-----------------|-----------------|-----------------|
|-----4---5-4-----|-----4---5-4-----|-----4---5-4-----|-----4---5-4-----|
|-2-------------0-|-2---------------|-2-------------0-|-2---------------|
  E S E S S E Q E.  E S E S S E Q E.  E S E S S E Q E.  E S E S S E Q E.

|-----------------|-----------------|-----------------|-----------------|
|-----------------|-----------------|-----------------|-----------------|
|-----------------|-----------------|-----------------|-2-4-------------|
|-----4---5-4-----|-----4---5-4-----|-----4---5-4---2-|-----------------|
|-2-------------0-|-2---------------|-2---------------|-----------------|
  E S E S S E Q E.  E S E S S E Q E.  E S E S S E Q E.  E E H

|-----------------|-----------------|-----------------|
|-----------------|-----------------|-----------------|
|-----------------|-----------------|-----------------|
|-----------------|-----------------|-----------------|
|-----------------|---2-------------|-----------------|
  W                 E E H.            W

Chorus 1

|-----------------|-----------------|-----------------|-------------------|
|-----------------|-----------------|-----------------|-------------------|
|-----------------|-----------------|-----------------|-------------------|
|-----4---5-4-----|-----4---5-4-----|-----4---5-4-----|-----4---5-4---2-4-|
|-2-------------0-|-2-------------0-|-2-------------0-|-2-----------------|
  E S E S S E Q.S   E S E S S E Q.S   E S E S S E Q E.  E S E S S E Q S E

|-----------------|-----------------|-------------------|-------------------|
|-----------------|-----------------|-------------------|-------------------|
|-----------------|-----------------|---------0-2-------|-4-----------------|
|-----4---5-4-----|-----4---5-4-----|-----4-------------|-------------------|
|-2-------------0-|-2-2-----------0-|-2-----------------|-------------------|
  E S E S S E Q E.  E S E S S E Q E.  E S E S S S H       W

Verse 2

|-----------------|-----------------|-----------------|-------------------|
|-----------------|-----------------|-----------------|-------------------|
|-----------------|-----------------|-----------------|-------------------|
|-----4---5-4-----|-----4---5-4-----|-----4---5-4-----|-----4---5-4---4---|
|-2-------------0-|-2-------------0-|-2-------------0-|-2---------------0-|
  E S E S S E Q E.  E S E S S E Q.S   E S E S S E Q E.  E S E S S E E.E E

|-----------------|-----------------|---------------------|-----------------|
|-----------------|-----------------|---------------------|-----------------|
|-----------------|-----------------|---------------------|-2-4-------------|
|-----4---5-4-----|-----4---5-4-----|-----4---5-4-----2-4-|-----------------|
|-2-------------0-|-2-------------0-|-2-------------------|-----------------|
  E S E S S E Q E.  E S E S S E Q.S   E S E S S E S Q S S   E E H

|-----------------|-----------------|-----------------|
|-----------------|-----------------|-----------------|
|-----------------|-----------------|-----------------|
|-----------------|-----------------|-----------------|
|-----------------|---2-------------|-----------------|
  W                 E E H.            W

Chorus 2

|-----------------|-----------------|-----------------|-------------------|
|-----------------|-----------------|-----------------|-------------------|
|-----------------|-----------------|-----------------|-------------------|
|-----4---5-4-----|-----4---5-4-----|-----4---5-4-----|-----4---5-4---2-4-|
|-2-------------0-|-2-------------0-|-2-------------0-|-2-----------------|
  E S E S S E Q.S   E S E S S E Q.S   E S E S S E Q E.  E S E S S E Q S E 

|-----------------|-----------------|-------------------|-------------------|
|-----------------|-----------------|-------------------|-------------------|
|-----------------|-----------------|---------0-2-------|-4---------------2-|
|-----4---5-4-----|-----4---5-4-----|-----4-------------|-------------------|
|-2-------------0-|-2-------------0-|-2-----------------|-------------------|
  E S E S S E E.E   E S E S S E Q.S   E S E S S S H       H.            E.S

Bridge

|-----------------|-----------------|-----------------|-------------------|
|-----------------|-----------------|-----------------|-------------------|
|-----------------|---------------4-|-----------------|-------------------|
|-5-----5-4-----2-|-4-----2-4-4-----|-5-----5-4-----2-|-4-----2-4-2-4-----|
|----5------------|-----------------|----5------------|-----------------0-|
  E. E. E E E E.S   E E E.S E E S E.  E. E. E E E E.S   E E E.S S S S E E.

|-----------------|-----------------|-----------------|-----------------|
|-----------------|-----------------|-----------------|-----------------|
|-----------------|---------------4-|---------4-------|-2---------------|
|-5-----5-4-----2-|-4-----2-4-4-----|-2---------------|-----------------|
|----5------------|-----------------|-----------------|---------2-------|
  E. E. E E E E.S   E E E.S E E S E.  H       H         H       H

Chorus 3

|-----------------|-----------------|-------------------|-----------------|
|-----------------|-----------------|-------------------|-----------------|
|-----------------|-----------------|-------------------|-----------------|
|-----4---5-4-----|-----4---5-4-----|-------4---5-4-----|-----4---5-4-----|
|-2-------------0-|-2-------------0-|-2-0-2-----------0-|-2-------------0-|
  E S E S S E Q E.  E S E S S E Q.S   S S S E S S E Q E.  E S E S S E Q.S

|-----------------|-------------------|-----------------|-----------------------|
|-----------------|-------------------|-----------------|-----------------------|
|-----------------|-------------------|-----------------|-----------------------|
|-----4---5-4-----|-----4---5-4---2-4-|-----4---5-4-----|-----4---5-4---4---2-0-|
|-2-------------0-|-2-2---------------|-2-------------0-|-2---------------------|
  E S E S S E Q E.  E S E S S E Q E S   E S E S S E Q E.  E S E S S E S S S S E.

|-----------------|-----------------|-----------------|-----------------|
|-----------------|-----------------|-----------------|-----------------|
|-----------------|-----------------|-----------------|-----------------|
|-----4---5-4-----|-----4---5-4-----|-----4---5-4-----|-----4---5-4-----|
|-2-------------0-|-2-------------0-|-2-2-----------0-|-2-------------0-|
  E S E S S E Q.S   E S E S S E Q.S   E S E S S E Q E.  E S E S S E Q.S 

|-------------------|-----------------|-----------------|-----------------------|
|-------------------|-----------------|-----------------|-----------------------|
|-------------------|-----------------|-----------------|-----------------------|
|-----4---5-4---2-4-|-----4---5-4-----|-----4---5-4-----|---------5-4-5-4---5-4-|
|-2-2---------------|-2-------------0-|-2-2-----------0-|-2---2-----------------|
  E S E S S E Q.E S   E S E S S E Q.S   E S E S S E Q E.  E S E S S E S E S S E

|-----------------|-----------------|-------------------|-----------------|
|-----------------|-----------------|-------------------|-----------------|
|-----------------|-----------------|-------------------|-----------------|
|-----4---5-4-----|-----4---5-4-----|-------4---5-4-----|-----4---5-4-----|
|-2-------------0-|-2-------------0-|-2-0-2-----------0-|-2-------------0-|
  E S E S S E Q E.  E S E S S E Q.S   S S S E S S E Q E.  E S E S S E Q.S 

|-----------------|-------------------|-----------------|-----------------------|
|-----------------|-------------------|-----------------|-----------------------|
|-----------------|-------------------|-----------------|-----------------------|
|-----4---5-4-----|-----4---5-4---2-4-|-----4---5-4-----|-----4---5-4---4---2-0-|
|-2-------------0-|-2-----------------|-2-------------0-|-2---------------------|
  E S E S S E Q E.  E S E S S E Q.E S   E S E S S E Q E.  E S E S S E S S S S E.

|-----------------|-----------------|-------------------|-----------------|
|-----------------|-----------------|-------------------|-----------------|
|-----------------|-----------------|-------------------|-----------------|
|-----4---5-4-----|-----4---5-4-----|-------4---5-4-----|-----4---5-4-----|
|-2-------------0-|-2-------------0-|-2-0-2-----------0-|-2-------------0-|
  E S E S S E Q E.  E S E S S E Q.S   S S S E S S E Q E.  E S E S S E Q.S 

|-----------------|-------------------|-----------------|-----------------------|
|-----------------|-------------------|-----------------|-----------------------|
|-----------------|-------------------|-----------------|-----------------------|
|-----4---5-4-----|-----4---5-4---2-4-|-----4---5-4-----|-----4---5-4---4---2-0-|
|-2-------------0-|-2-----------------|-2-------------0-|-2---------------------|
  E S E S S E Q E.  E S E S S E Q E S   E S E S S E Q E.  E S E S S E S S S S E.


|-----------------|-------------------|-----------------|---------------------|
|-----------------|-------------------|-----------------|---------------------|
|-----------------|-------------------|-----------------|---------------2-----|
|-----4---5-4-----|-----4---5-4---2-4-|-----4---5-4-----|-----4---5-4-----4---|
|-2-------------0-|-2-----------------|-2-------------0-|-2-----------------2-|
  E S E S S E Q E.  E S E S S E Q.E S   E S E S S E Q E.  E S E S S E E.E S S

|-----------------|---------------------|-----------------|-----------------||
|-----------------|---------------------|-----------------|-----------------||
|-----------------|---------------------|-----------------|-----------------||
|-----4---5-4-----|-----4---5-4---2-4---|-----4---5-4-----|-----4---5-4-----||
|-2-------------0-|-2-----------------2-|-2-------------0-|-2---------------||
  E S E S S E Q E.  E S E S S E Q S S S   E S E S S E Q E.  E S E S S E Q E.



Version 2 - 4 String

Intro

|-----------------|-----------------|-----------------|-6---------------|
|-----------------|-----------------|-----------------|-----------------|
|-----------------|-----------------|-----------------|---------4-------|
|-----------------|-----------------|-----------------|-----------------|
  W                  W                 W                 H       H

Verse 1

|-----------------|-----------------|-----------------|-----------------|
|-----6---7-6-----|-----6---7-6-----|-----6---7-6-----|-----6---7-6-----|
|-4-------------2-|-4---------------|-4-------------2-|-4---------------|
|-----------------|-----------------|-----------------|-----------------|
  E S E S S E Q E.  E S E S S E Q E.  E S E S S E Q E.  E S E S S E Q E.

|-----------------|-----------------|-----------------|-4---6-----------|
|-----6---7-6-----|-----6---7-6-----|-----6---7-6---4-|-----------------|
|-4-------------2-|-4---------------|-4---------------|-----------------|
|-----------------|-----------------|-----------------|-----------------|
  E S E S S E Q E.  E S E S S E Q E.  E S E S S E Q E.  E E H

|-----------------|-----------------|-----------------|
|-----------------|-----------------|-----------------|
|-----------------|---4-------------|-----------------|
|-----------------|-----------------|-----------------|
  W                 E E H.            W

Chorus 1

|-----------------|-----------------|-----------------|-------------------|
|-----6---7-6-----|-----6---7-6-----|-----6---7-6-----|-----6---7-6---4-6-|
|-4-------------2-|-4-------------2-|-4-------------2-|-4-----------------|
|-----------------|-----------------|-----------------|-------------------|
  E S E S S E Q.S   E S E S S E Q.S   E S E S S E Q E.  E S E S S E Q S E

|-----------------|-----------------|-----------4-------|-6---------------|
|-----6---7-6-----|-----6---7-6-----|-----6---7---------|-----------------|
|-4-------------2-|-4-------------2-|-4-----------------|-----------------|
|-----------------|-----------------|-------------------|-----------------|
  E S E S S E Q E.  E S E S S E Q E.  E S E S S S H       W

Verse 2

|-----------------|-----------------|-----------------|-------------------|
|-----6---7-6-----|-----6---7-6-----|-----6---7-6-----|-----6---7-6---6---|
|-4-------------2-|-4-------------2-|-4-------------2-|-4---------------2-|
|-----------------|-----------------|-----------------|-------------------|
  E S E S S E Q E.  E S E S S E Q.S   E S E S S E Q E.  E S E S S E E.E E

|-----------------|-----------------|---------------------|-4-6-------------|
|-----6---7-6-----|-----6---7-6-----|-----6---7-6-----4-6-|-----------------|
|-4-------------2-|-4-------------2-|-4-------------------|-----------------|
|-----------------|-----------------|---------------------|-----------------|
  E S E S S E Q E.  E S E S S E Q.S   E S E S S E S Q S S   E E H

|-----------------|-----------------|-----------------|
|-----------------|-----------------|-----------------|
|-----------------|---4-------------|-----------------|
|-----------------|-----------------|-----------------|
  W                 E E H.            W

Chorus 2


|-----------------|-----------------|-----------------|-------------------|
|-----6---7-6-----|-----6---7-6-----|-----6---7-6-----|-----6---7-6---4-6-|
|-4-------------2-|-4-------------2-|-4-------------2-|-4-----------------|
|-----------------|-----------------|-----------------|-------------------|
  E S E S S E Q.S   E S E S S E Q.S   E S E S S E Q E.  E S E S S E Q S E 

|-----------------|-----------------|-----------4-------|-6---------------|
|-----6---7-6-----|-----6---7-6-----|-----6---7---------|---------------6-|
|-4-------------2-|-4-------------2-|-4-----------------|-----------------|
|-----------------|-----------------|-------------------|-----------------|
  E S E S S E E.E   E S E S S E Q.S   E S E S S S H       H.          E.S

Bridge

|-----------------|---------------6-|-----------------|-------------------|
|-7-----7-6-----4-|-6-----4-6-6-----|-7-----7-6-----4-|-6-----4-6-4-6-----|
|----7------------|-----------------|----7------------|-----------------2-|
|-----------------|-----------------|-----------------|-------------------|
  E. E. E E E E.S   E E E.S E E S E.  E. E. E E E E.S   E E E.S S S S E E.

|-----------------|---------------6-|---------6-------|-4---------------|
|-7-----7-6-----4-|-6-----4-6-6-----|-4---------------|-----------------|
|----7------------|-----------------|-----------------|---------4-------|
|-----------------|-----------------|-----------------|-----------------|
  E. E. E E E E.S   E E E.S E E S E.  H       H         H       H

Chorus 3

|-----------------|-----------------|-------------------|-----------------|
|-----6---7-6-----|-----6---7-6-----|-------6---7-6-----|-----6---7-6-----|
|-4-------------2-|-4-------------2-|-4-2-4-----------2-|-4-------------2-|
|-----------------|-----------------|-------------------|-----------------|
  E S E S S E Q E.  E S E S S E Q.S   S S S E S S E Q E.  E S E S S E Q.S

|-----------------|-------------------|-----------------|-----------------------|
|-----6---7-6-----|-----6---7-6---4-6-|-----6---7-6-----|-----6---7-6---6---4-2-|
|-4-------------2-|-4-4---------------|-4-------------2-|-4---------------------|
|-----------------|-------------------|-----------------|-----------------------|
  E S E S S E Q E.  E S E S S E Q E S   E S E S S E Q E.  E S E S S E S S S S E.

|-----------------|-----------------|-----------------|-----------------|
|-----6---7-6-----|-----6---7-6-----|-----6---7-6-----|-----6---7-6-----|
|-4-------------2-|-4-------------2-|-4-4-----------2-|-4-------------2-|
|-----------------|-----------------|-----------------|-----------------|
  E S E S S E Q.S   E S E S S E Q.S   E S E S S E Q E.  E S E S S E Q.S 

|-------------------|-----------------|-----------------|-----------------------|
|-----6---7-6---4-6-|-----6---7-6-----|-----6---7-6-----|---------7-6-7-6---7-6-|
|-4-----------------|-4-------------2-|-4-4-----------2-|-4---4-----------------|
|-------------------|-----------------|-----------------|-----------------------|
  E S E S S E Q.E S   E S E S S E Q.S   E S E S S E Q E.  E S E S S E S E S S E

|-----------------|-----------------|-------------------|-----------------|
|-----6---7-6-----|-----6---7-6-----|-------6---7-6-----|-----6---7-6-----|
|-4-------------2-|-4-------------2-|-4-2-4-----------2-|-4-------------2-|
|-----------------|-----------------|-------------------|-----------------|
  E S E S S E Q E.  E S E S S E Q.S   S S S E S S E Q E.  E S E S S E Q.S 

|-----------------|-------------------|-----------------|-----------------------|
|-----6---7-6-----|-----6---7-6---4-6-|-----6---7-6-----|-----6---7-6---6---4-2-|
|-4-------------2-|-4-----------------|-4-------------2-|-4---------------------|
|-----------------|-------------------|-----------------|-----------------------|
  E S E S S E Q E.  E S E S S E Q.E S   E S E S S E Q E.  E S E S S E S S S S E.

|-----------------|-----------------|-------------------|-----------------|
|-----6---7-6-----|-----6---7-6-----|-------6---7-6-----|-----6---7-6-----|
|-4-------------2-|-4-------------2-|-4-2-4-----------2-|-4-------------2-|
|-----------------|-----------------|-------------------|-----------------|
  E S E S S E Q E.  E S E S S E Q.S   S S S E S S E Q E.  E S E S S E Q.S 

|-----------------|-------------------|-----------------|-----------------------|
|-----6---7-6-----|-----6---7-6---4-6-|-----6---7-6-----|-----6---7-6---6---4-2-|
|-4-------------2-|-4-----------------|-4-------------2-|-4---------------------|
|-----------------|-------------------|-----------------|-----------------------|
  E S E S S E Q E.  E S E S S E Q E S   E S E S S E Q E.  E S E S S E S S S S E.

|-----------------|-------------------|-----------------|---------------4-----|
|-----6---7-6-----|-----6---7-6---4-6-|-----6---7-6-----|-----6---7-6-----6---|
|-4-------------2-|-4-----------------|-4-------------2-|-4-----------------4-|
|-----------------|-------------------|-----------------|---------------------|
  E S E S S E Q E.  E S E S S E Q.E S   E S E S S E Q E.  E S E S S E E.E S S

|-----------------|---------------------|-----------------|-----------------||
|-----6---7-6-----|-----6---7-6---4-6---|-----6---7-6-----|-----6---7-6-----||
|-4-------------2-|-4-----------------4-|-4-------------2-|-4---------------||
|-----------------|---------------------|-----------------|-----------------||
  E S E S S E Q E.  E S E S S E Q S S S   E S E S S E Q E.  E S E S S E Q E.



Key to rhythm notations:

W - Whole Note/Semi-Brieve
H - Half Note/Minim
Q - Quarter Note/Crotchet       Q. - Dotted Quarter Note
E - Eight Note/Quaver           E. - Dotted Eight Note
S - Sixteenth Note/Semi-Quaver  S. - Dotted Sixteenth Note
   

            
            
Suggest correction
Creating personal tab
Creating personal tab
You can edit any tab online and save it as your Personal.

You can edit, replace or remove any tab part or add personal notes – all changes will be seen only by you.

Personal tabs can be accessed anytime from any device, even offline.
Learn more »
Give kudos to tab author, rate the tab!
1 2 3 4 5
comments
print report bad tab
guest
You may want to rate the tab now too:
select rating
Wanna post a correction for this tab? Suggest correction