Oops, an error
Loading. Please wait.

Didnt Cha Know Bass Tab

15,340 views 39 this week
no commentswrite comment
1 2 3 4 5
x 7
add to favorites
launch autoscroll
font size
0
reset
guitar tuner
Autoscroll
slow
fast
+/-
esc
set tempo
stop
Help us to improve Ultimate-Guitar.com Take our survey!
×
Author
DIDN'T CHA KNOW by Erykah Badu from the album "Mama's Gun"

Beautiful tune with only two bass patterns. 
Bass enters with F (10th fret, G-string) 
on second beat of first measure.

Play this part during the intro and refrain:
G|---10-------8/10\8-|---10-------8/10\8-|---10-------8/10\8-|---10-------8/10-11-10|
D|--8--8-----8------8|--8--8-----8------8|--8--8-----8------8|--8--8-----8----------|
A|6-----9-6-9--------|6-----9-6-9--------|6-----9-6-9--------|6-----9-6-9-----------|
E|-------------------|-------------------|-------------------|----------------------|

Play this part during the verses:
G|----10h11p10--13-11-10-----|----10h11p10--13-11-10-----|
D|-----------h13---------11--|-----------h13---------11--|
A|--13---------------------13|--13---------------------13|
E|11-------------------------|11-------------------------|

/  slide up
\  slide down
h  hammer-on
p  pull-off
Suggest correction
comments
print report bad tab
guest
You may want to rate the tab now too:
select rating
Wanna post a correction for this tab? Suggest correction