Oops, an error
Loading. Please wait.

Green Eyes bass

322 views 6 this week
no commentswrite comment
1 2 3 4 5
3 more votes to show rating
add to favorites
×
Save as Personal and add changes to this tab that will be seen only by you. Learn more ›
×
You can save this tab as Personal to edit and correct it or add notes. All changes will be seen only by you. Learn more »
launch autoscroll
font size
0
reset
guitar tuner
edit
Autoscroll
slow
fast
+/-
esc
set tempo
stop
Author
                                    Green Eyes
                                   Erykah Badu

Bass                                                          Erykah Badu
                                                             James Poyser
                                                           Vikter Duplaix

MOVEMENT 1 (Denial)- No bass (31 Bars Rest)

MOVEMENT 2 (Acceptance) 

Double bass arr. for electric bass
as played by Carlos Henderson

Tuning = D G C F

In 6/8

Q = 124
       ___
      | 3 |
E E = Q   E 

Verse 1

4 Bars Rest

F|-------------------------|-------------------------|-------------------------|
C|-0-----------1-----------|-3-----------5-----------|-0-----------1-----------|
G|-------------------------|-----------------5---3---|-----------------------x-|
D|-------------------------|-------------------------|-------------------------|
   H.          H.            H.          Q   Q   Q     H.          H       E E 

F|-----------------5-------|-------------------------|-------------------------|
C|-3-----------5-------3---|-0-----------1-----------|-3-----------5-----------|
G|-----------x-------------|-----------------------x-|-----------x-------------|
D|-------------------------|-------------------------|-----------------3-------|
   H       E E Q   Q   Q     H.          H       E E   H       E E Q   H

F|-------------------------|-------------------------|-0-------3-5---------4---|
C|-0-----------1-----------|-3-----------5-----------|-------------3-----------|
G|-----------------------x-|-----------3-------------|-------------------------|
D|-------------------------|-------------------------|-------------------------|
   H.          H       E E   H       E E Q   Q   Q     H       E E H       Q

F|---------0-1-2-----------|-------------------------|-------------------------|
C|-2-----------------------|-0-----------1-----------|-3-----------5-----------|
G|-----------------0-------|-----------------------x-|-----------3---5-----3---|
D|-------------------------|-------------------------|-----------------3-------|
   H       E E Q   Q   Q     H.          H       E E   H       E E E E Q   Q
                                                  ___
                                                 | 3 |
F|-------------------------|-----------------5-7---7---|
C|-0-----------1-----------|-3---------x-3-----------7-|
G|-------------------------|---------------------------|
D|-------------------------|---------------------------|
   H.          H.            H       E E Q   E Q   E E

Verse 2

F|-------------------------|-------------------------|-------------------------|
C|-0-----------1-----------|-3-----------5-----------|-----0-------1-----------|
G|-------------------------|-----------------5-------|-------------------------|
D|-------------------------|---------------------3---|-------------------------|
   H.          H.            H.          Q   Q   Q         H       H.

F|-------------------------|-------------------------|-------------------------|
C|-3-----------5-----------|-0-----------1-----------|-3-----------5-----------|
G|---------------------3---|-------------------------|-----------3---------3---|
D|-----------------3-------|-------------------------|-------------------------|
   H.          Q   Q   Q     H.          H.            H       E E H       Q
                                    ___
                                   | 3 |
F|-------------------------|-------5-----------------|-0-----------------5---5-|
C|-0-----------1-----------|-3-------3---3-----------|-------------3-----------|
G|-----------------------x-|-----------3-------------|-------------------------|
D|-------------------------|-------------------------|-------------------------|
   H.          H       E E   H       E E Q   Q   Q     H.          Q.    E E E
          ___
         | 3 |
F|---------0-1-2---2-------|-------------------------|-------------------------|
C|-2-----3-----------------|-0-----------1-----------|-3-----------5-----------|
G|-------------------------|-----------------------x-|-----------3---------3---|
D|-------------------------|-------------------------|-----------------3-------|
   H     E E E Q   Q   Q     H.          H       E E   H       E E Q   Q   Q

F|-------------------------|-------------------------|-------------------------|
C|-0-----------1-----------|-3-----------5-------3---|-0-----------1-----------|
G|-------------------------|-----------------3-------|-------------------------|
D|-------------------------|-------------------------|-------------------------|
   H.          H.            H.          Q   Q   Q     H.          H.           

                                                                   Harmonic
F|------------------5--5---|-------------------------|-------------5-----------|
C|-3-----------5---------5-|-0-----------1-----------|-3-----------------------|
G|-------------------------|-------------------------|-------------------------|
D|-------------------------|-------------------------|-------------------------|
   H.          Q.   Q  S S   H.          H.            H.          H.  

F|-------------------------|-------------------------|-------------------------|
C|-0-----------1-----------|-3-----------5-------3---|-0-----------1-----------|
G|-------------------------|-----------------3-------|-------------------------|
D|-------------------------|-------------------------|-------------------------|
   H.          H.            H.          Q   Q   Q     H.          H.   
                  ___                                      ___
   10/8          | 3 |      6/4                       3/4 | 3 |
F|--------------------7---|-------------------------|-----------7---|
C|-3----------------5---5-|-------------------------|---------5---5-|
G|--------------5-7-------|-5-----------------------|-----5-7-------|
D|------------------------|-------------------------|---------------|
   H.           E E E E E   W.                        Q   E E E E E

   6/4
F|-------------------------|-------------------------|-------------------------|
C|-------------------------|-------------------------|-------------------------|
G|-6-----------------------|-------------------------|-------------------------|
D|-------------------------|-------------------------|-------------------------|
   W.                        W.                        W.                       
   
                             3/4
F|-------------------------|-------------|
C|-------------------------|-------------|
G|-------------------------|-------------|
D|-------------------------|-------------|
   W.                        H.

Verse 3                             ___
                                   | 3 |
F|-------------------------|-------------------------|-------------------------|
C|-1-----------2-----------|-4-----x-x-x-6-----------|-1-----------2-----------|
G|-------------------------|---------------------4---|-------------------------|
D|-------------------------|-----------------4-------|-------------------------|
   H.          H.            H     E E E Q   Q   Q     H.          H.
                                    ___
                                   | 3 |
F|-------------------------|---------------------6---|---------6---------------|
C|-------------6-----------|-1-----x-x-x-2-----------|-4---------x-6-------4---|
G|---------------------4---|-------------------------|-----------------4-------|
D|-2-----------------------|-------------------------|-------------------------|
   H.          H       Q     H.          H       Q     H       E E Q   Q   Q

F|---------x-x---------4-6-|-------------------------|---------------------6---|
C|-1-----------2-----------|-4---------x-6-----------|-1-----------2-----------|
G|-------------------------|---------------------4---|-------------------------|
D|-------------------------|-----------------4-------|-------------------------|
   H       E E H       E E   H       E E Q   Q   Q     H.          H       Q
                                                              _____   ___
                                                             |  3  | | 3 |
F|-------------------------|---------------------6---|-----------6-6-6-6-6---------|
C|-4-----------6-----------|-1-----------2-----------|-4-----4-6-----------6---4---|
G|-----------------4-------|-------------------------|-----------------------------|
D|-------------------------|-------------------------|-----------------------------|
   H       E E Q   Q   Q     H.          H       Q     H     E E S S E E E Q   Q

F|-------------------------|-------------------------|-------------------------|
C|-1-----------2-----------|-4---------x-6-----------|-1-----------2---------x-|
G|-------------------------|---------------------4---|-------------------------|
D|-------------------------|-----------------4-------|-------------------------|
   H.          H.      E E   H       E E Q   Q   Q     H.          H       E E

F|-------------------------|-------------------------|-------------------------|
C|-4-----------6-----------|-1-----------2-----------|-4-----------6-----------|
G|---------------------4---|-----------------------x-|-----------x---6-----4---|
D|-----------------4-------|-------------------------|-----------------4-------|
   H       E E Q   Q   Q     H.          H       E E   H     E E E E E Q   Q

F|-------------------------|-------------------------|-------------------------|
C|-1-----------2-----------|-------------------------|-------------------------|
G|-------------------------|-------------------------|-------------------------|
D|-------------------------|-2-----------4-----------|-4-----------2-----------|
   H.          H.            H.          H.            H.          H.

F|-------------------------|-------------------------|
C|-------------------------|-------------------------|
G|-------------------------|-------------------------|
D|-1-----------------------|-------------------------|
   W.                        W. 

MOVEMENT 3 (Relapse)

As played by Pino Palladino

Tuning = C F Bb Eb

H = 76

In 2/2

8 Bars Rest

Eb|---------9-------|-----------------|-----------------|--------12-------|
Bb|-------9---------|-----------------|-----------------|------10----10---|
 F|-7---------------|-----------------|-0-----------8---|(8)------------8-|
 C|-------------8---|(8)--------------|-----------------|-----------------|
    Q.    E Q   Q     W                 H.          Q     Q.    E Q   E E

Eb|-----------------|-----------------|---------2-------|-----------------|
Bb|-----------------|-----------------|-----2-------3---|(3)--------------|
 F|-7---------------|-----------------|-0---------------|-----------------|
 C|-------------8---|(8)--------------|-----------------|-----------------|
    H.          Q     W                 Q   Q   Q   Q     H       H

Verse 1

Eb|---------9-------|-----------------|-----------------|--------12-------|
Bb|-------9---------|-----------------|-7---------------|------10----10---|
 F|-7---------------|-----------------|-------------8---|(8)------------8-|
 C|-------------8---|(8)--8-8-8-------|-----------------|-----------------|
    Q   Q   Q   Q     Q   E E H         H.          Q     Q.    E Q   E E

Eb|---------9-------|-----------------|-----------------|-----------------|
Bb|-------9---------|-----------------|-7---------------|-----------------|
 F|-7---------------|-----------------|-------------8---|(8)--------------|
 C|-------------8---|(8)--8-8-8\------|-----------------|-----------------|
    Q   Q   Q   Q     Q   E E H         H.          Q     W

Eb|---------9-------|-----------------|-----------------|-----------------|
Bb|-------9---------|-----------------|-7---------------|-----------------|
 F|-7---------------|-----------------|-------------8---|(8)--------------|
 C|-------------8---|(8)--------------|-----------------|-----------------|
    Q.    E Q   Q     W                 H.          Q     W

Eb|---------9-------|-----5/7\5-------|---------2-------|-----------------|
Bb|-------9---------|-------------5---|-----2-------3---|(3)--------------|
 F|-7---------------|---------------3-|-0---------------|-----------------|
 C|-------------8---|(8)--------------|-----------------|-----------------|
    Q.    E Q   Q     Q   E E Q   E E   Q   Q   Q   Q     H       H

Eb|---------9-------|--------19-------|-----------------|--------12-------|
Bb|-------9---------|------17----17---|-----------------|------10----10---|
 F|-7---------------|--------------15-|-12----------8---|(8)------------8-|
 C|-------------8---|(8)--------------|-----------------|-----------------|
    Q.    E Q   Q     Q.                H.          Q     Q.    E Q   E E

Eb|-----------------|-----------------|-----------------|-----14----------|
Bb|-----------------|-----------------|-----------------|-----15----------|
 F|-7---------------|-----------------|-12--------------|-----------------|
 C|-------------8---|(8)------------8-|-------------13--|-13--------------|
    H.          Q     H.          E E   H.          Q     Q   H.

Eb|---------9-------|-----------------|-----------------|-----------------|
Bb|-------9---------|-----------------|---------7-------|-----------------|
 F|-7---------------|-----------------|-0-----7-----8---|(8)--------------|
 C|-------------8---|(8)------------8-|-----------------|-----------------|
    Q.    E Q   Q     H.          E E   Q.    E Q   Q     W

Eb|---------9-------|-----------------|-----------------|-----------------|
Bb|-----9-----------|-----------10-10-|-7---------------|-----------------|
 F|-7---------------|---------10------|-------7-----8---|-8---------------|
 C|-------------8---|(8)--------------|---------5-------|-----------------|
    Q   Q   Q   Q     H      E E E  E   Q.    E Q   Q     E E Q   H

Verse 2

Eb|-----------------|-----------------|-----------------|-----------------|
Bb|-----------------|-----------------|-----------------|-----------------|
 F|-----------------|-----------------|-----------------|-----------------|
 C|-0-----------1---|(1)----------3-5-|-3-----------5---|(5)----5-5---7---|
    Q   Q   Q   Q     H.          E E   H.          Q     Q.    E Q   Q

Eb|-----------------|-----------------|-----------------|-----------------|
Bb|-2---------------|-----------------|-----------------|-----------------|
 F|-----------------|-----------------|-----------------|-------------5---|
 C|-------------1---|(1)----1-1-------|-3-----------5---|(5)--------7-----|
    Q   Q   Q   Q     Q.    E H         H.          Q     H       E E Q

Eb|--------12-------|-----------------|-----------------|-----------------|
Bb|----/9-----------|-----------------|-----------------|-----------------|
 F|-------------8---|(8)--------------|-----------------|-------------5---|
 C|-0---------------|-----------------|-3-----------5---|(5)--------7-----|
    Q   Q   Q   Q     W                 H.          Q     H       E E 

Eb|---14-12---------|-----------------|-----------------|-----------------|
Bb|--------14-------|-----------------|-----------------|-----------------|
 F|-------------8---|(8)--------------|-----------------|-----------------|
 C|-0---------------|-----------------|-3-----------5---|(5)--------------|
    Q  E  E Q   Q     W                 H.          Q     W

Bridge 1

Eb|-------9---------|-----------------|-----------------|-----------------|
Bb|-----7-----7-----|-----------------|-----------------|-----------------|
 F|-7-9---------5---|(5)--------------|(5)--------------|(5)--------------|
 C|-----------------|-----------------|-----------------|-----------------|
    E E E Q   E Q     W                 W                 W

Eb|-------9---------|-----------------|-----------------|-----------------|
Bb|-----7-----7-----|-----------------|-----------------|-7-9-7-----------|
 F|-7-9---------5---|(5)--------------|(5)--------------|---------5-------|
 C|-----------------|-----------------|-----------------|-----------------|
    E E E Q   E Q     W                 W                 E E Q   H

Eb|-------9---------|-----------------|-----------------|-----------------|
Bb|-----7-----7-----|-----------------|-----------------|-----------------|
 F|-7-9---------5---|(5)--------------|(5)--------------|(5)--------------|
 C|-----------------|-----------------|-----------------|-----------------|
    E E E Q   E Q     W                 W                 W

Eb|-------9---------|-----------------|-----------------|-----------------|
Bb|-----7-----7-----|-----------------|-----------------|-----------------|
 F|-7-9---------8---|(8)--------------|(8)--------------|(8)--------------|
 C|-----------------|-----------------|-----------------|-----------------|
    E E E Q   E Q     W                 W                 W

Eb|-----------------|
Bb|-----------------|
 F|-----6\----------|
 C|-----------------|
    Q   H.

Verse 3

Eb|-----------------|-----------------|-----------------|-----------------|
Bb|-----------------|-----------------|---------6-------|-----------------|
 F|-----------------|-----------------|-----6-----------|-----------------|
 C|-1-----------2---|(2)--------------|-4-----------6---|(6)--------------|
    H.          Q     W                 Q   Q   Q   Q     W

Eb|-----------------|-----------------|-----------------|-----------------|
Bb|-----------------|-----------------|---------6-------|-----------------|
 F|-----------------|-----------------|-----6-----------|-----------------|
 C|-1-----------2---|(2)--------------|-4-----------6---|(6)--------------|
    H.          Q     W                 Q   Q   Q   Q     W

Eb|--------10-------|-----------------|-----------------|-----------------|
Bb|------10---------|-----------------|-6-----------8---|(8)------8\------|
 F|-8-----------9---|(9)--------------|-----------------|-----------------|
 C|-----------------|-----------------|-----------------|-----------------|
    Q.    E Q   Q     W                 H.          Q     H       H

Eb|-----------------|-----------------|-----------------|-----------------|
Bb|-----------------|---------4-------|-----------------|-----------------|
 F|-----------------|-------4-----4---|-----------------|---5-----6---7---|
 C|-1-----------2---|(2)--------------|-4-----------6---|(6)--------------|
    H.          Q     Q.    E Q   Q     H.          Q     E Q.    Q   Q

Eb|-----------------|-----------------|-----------------|-----------------|
Bb|-----------------|-------11-9------|-6-----------8---|(8)--------------|
 F|-8-----------9---|(9)---------11-9-|-----------------|-------8---------|
 C|-----------------|-----------------|-----------------|---------6-------|
    H.          Q     H      E E  E E   H.      Q   Q     Q.    E H

Eb|-----------------|-----------------|-----------------|-----------------|
Bb|-----------------|-----------------|-----------------|-------------1-2-|
 F|-----------------|-----------------|-----------------|-----------3-----|
 C|-1-----------2---|(2)----2---2-2---|-4-----------6---|(6)--------------|
    H.          Q     Q.    E E E E E   H.          Q     H.      E E E E

Eb|-----------------|-----------------|-----------------|-----------------|
Bb|-3---------------|-------------4---|-----------------|---------------6-|
 F|-----------------|-----------4---4-|-----------------|---------3---6---|
 C|-------------2---|(2)--------------|-4-----------6---|(6)--------------|
    H.          Q     H       E E E E   H.          Q     H       Q   E E

Eb|-----------------|----11-13-11-----|-----------------|-----------------|
Bb|-----------------|------------13---|-6-----------8---|(8)------8\------|
 F|-----------------|---------------9-|-----------------|-----------------|
 C|-1-----------2---|(2)--------------|-----------------|-----------------|
    H.          Q     Q.  E  E  E E E   H.          Q     H      H

Eb|-----------------|-----------------|-----------------|-----------------|
Bb|-----------------|-----------------|-----------------|-------------1-2-|
 F|-----------------|-------4---------|-----------------|-----------3-----|
 C|-1-----------2---|(2)----------2---|-4-----------6---|(6)--------------|
    H.          Q     Q.    Q.    Q     H.          Q     H.      E E E E

Eb|-----------------|-----------------|-----------------|-----------------|
Bb|-3---------------|-----------------|-----------------|-----------------|
 F|-----3-----------|-----------------|-----------------|-----------------|
 C|---------1---2---|(2)----------4-6-|-4-----------6---|(6)------6-------|
    Q   Q   Q   Q     H.          E E   H.          Q     H       H

Bridge 2

Eb|-------10--------|-----------------|-----------------|-----------------|
Bb|-----8-----8-----|-----------------|-----------------|-----------------|
 F|-8-10--------6---|(6)--------------|(6)--6-----------|(6)--------------|
 C|-----------------|-----------------|---6-------------|-----------------|
    E E E Q   E Q     W                 E E H.            W

Eb|-------10--------|-----------------|-----------------|-----------------|
Bb|-----8-----8-----|-----------------|-----------------|-----------------|
 F|-8-10--------6---|(6)--------------|(6)--------------|(6)--------------|
 C|-----------------|-----------------|-----------------|-----------------|
    E E E Q   E Q     W                 W                 W

Eb|-------10--------|-----------------|-----------------|-----------------|
Bb|-----8-----8-----|-----------------|-----------------|-----------------|
 F|-8-10--------6---|(6)--------------|(6)--------------|(6)--------------|
 C|-----------------|-----------------|-----------------|-----------------|
    E E E Q   E Q     W                 W                 W

Eb|-------10--------|-----------------|-----------------|-----------------|
Bb|-----8-----8-----|-----------------|-----------------|-----------------|
 F|-8-10--------9---|(9)--------------|(9)--------------|(9)--------------|
 C|-----------------|-----------------|-----------------|-----------------|
    E E E Q   E Q     W                 W                 W

Eb|-------10--------|-----------------|-----------------|-----------------|
Bb|-----8-----8-----|-----------------|-----10--8--10---|-----------------|
 F|-8-10--------6---|(6)--------------|-8-10--10-----10-|-6---6-----------|
 C|-----------------|-----------------|-----------------|-----------------|
    E E E Q   E Q     W                 E E E E Q   E E   Q   H.

Eb|-------10--------|-----------------|-----------------|-----------------|
Bb|-----8-----8-----|-----------------|-----------------|-----------------|
 F|-8-10--------6---|(6)--------------|(6)--------------|-----6-----------|
 C|-----------------|-----------------|-----------8-6-8-|-----------------|
    E E E Q   E Q     W                 H       E E E E   Q   H       Q

Eb|-------10--------|-----------------|-------------8---|-----------------|
Bb|-----8-----8-----|-----------------|-----------8---8-|-----------------|
 F|-8-10--------6---|(6)--------------|(6)--------------|-6---6-----------|
 C|-----------------|-----------------|-----------------|-----------------|
    E E E Q   E Q     W                 H       E E E E   Q   H       Q

Eb|-------10--------|---11-11----------|-----------------|-----------------|
Bb|-----8-----8-----|-------13-13------|-----------------|-----------------|
 F|-8-10--------9---|(9)---------11-11-|-9---9-----------|(9)--------------|
 C|-----------------|------------------|-----------------|-----------------|
    E E E Q   E Q     Q  E E E E E  E    Q   H.            W

Eb|-------10--------|-----------------|-----------------|-----------------|
Bb|-----8-----8-----|-----------------|-----------------|-----------------|
 F|-8-10--------6---|(6)--------------|-----------------|-6---6-----------|
 C|-----------------|-------------6---|-6---6-------6-8-|---6-------------|
    E E E Q   E Q     H.          Q     Q   H       E E   E E H       Q

Eb|-------10--------|-----------------|-13--12--9-------|-----------------|
Bb|-----8-----8-----|-----------------|-----------9-5---|-----------------|
 F|-8-10--------6---|(6)--------------|-----------------|-6---6-----------|
 C|-----------------|-------------6/--|-----------------|-----------------|
    E E E Q   E Q     H.          Q     Q   Q   E E Q     Q   H.

Eb|-------10--------|-----------------|-----------------|-----------------|
Bb|-----8-----8-----|-----------------|-----------------|-----------------|
 F|-8-10--------6---|(6)----------6---|-------------6---|-6---------------|
 C|-----------------|---------------8-|-6---------8---8-|-----------------|
    E E E Q   E Q     H.          E E   H       E E E E   W

Eb|-------10--------|-----------------|-----------13----|-13--------------|
Bb|-----8-----8-----|-----------------|--------------11-|----11-----------|
 F|-8-10--------9---|(9)--------------|(9)--------------|-------9---9-----|
 C|-----------------|-----------------|-----------------|-----------------|
    E E E Q   E Q     W                 H.         E  E   E  E  Q   Q   Q

Eb|-------10--------|-----------------|-----------------|-----------------|
Bb|-----8-----8-----|-----------------|-----------------|-4---------------|
 F|-8-10--------6---|(6)--------------|-----3---4-4-6---|-----6-----------|
 C|-----------------|-----3---4-4-5-5-|-6-6-------------|-----------------|
    E E E Q   E Q     E E E E E E E E   E E E E E E E     E E H.

Eb|-------10--------|--------------10-|---------9-------|-----------------|
Bb|-----8-----8-----|-----------------|---8-10----5/----|-----------------|
 F|-8-10--------6---|(6)--------------|-----------------|-6---6-----------|
 C|-----------------|-----------------|-----------------|-----------------|
    E E E Q   E Q     H.          E E   E E E E E Q.      Q   H.

Eb|-------10--------|-----------------|------------------|-----------------|
Bb|-----8-----8-----|-----------------|-----10--8--10-10-|-----------------|
 F|-8-10--------6---|(6)--------------|-8-10--10---------|-6---6-----------|
 C|-----------------|-----------------|------------------|-----------------|
    E E E Q   E Q     W                 E E E E Q   E  E   Q   H.


Eb|-------10--------|-----------------|----11/13/15-----|(15)-------15/18-|
Bb|-----8-----8-----|-----------------|-----------------|-----------------|
 F|-8-10--------9---|(9)--------------|(9)--------------|-----------------|
 C|-----------------|-----------------|-----------------|-----------------|
    E E E Q   E Q     W                 Q  E  E  H        H.         E  E

Eb|-17--------------|-17\15-----------|-----------------|----------------||
Bb|---------18------|-18\16-----------|-----------------|----------------||
 F|-----------------|-----------------|-----------------|----------------||
 C|-----------------|-----------------|-----2-----------|(2)-------------||
    H       H         Q   H.            Q   H.            W


Key to rhythm notations:

W - Whole Note/Semi-Brieve
H - Half Note/Minim
Q - Quarter Note/Crotchet       Q. - Dotted Quarter Note
E - Eight Note/Quaver           E. - Dotted Eight Note
S - Sixteenth Note/Semi-Quaver  S. - Dotted Sixteenth Note
Suggest correction
Creating personal tab
Creating personal tab
You can edit any tab online and save it as your Personal.

You can edit, replace or remove any tab part or add personal notes – all changes will be seen only by you.

Personal tabs can be accessed anytime from any device, even offline.
Learn more »
Give kudos to tab author, rate the tab!
1 2 3 4 5
comments
print report bad tab
guest
You may want to rate the tab now too:
select rating
Wanna post a correction for this tab? Suggest correction