Oops, an error
Loading. Please wait.

Otherside Of The Game bass

version 1
version 1

Whole song

Interactive

1,180 views 9 this week
no commentswrite comment
1 2 3 4 5
2 more votes to show rating
add to favorites
×
Save as Personal and add changes to this tab that will be seen only by you. Learn more ›
×
You can save this tab as Personal to edit and correct it or add notes. All changes will be seen only by you. Learn more »
launch autoscroll
font size
0
reset
guitar tuner
edit
Autoscroll
slow
fast
+/-
esc
set tempo
stop
Author
Difficulty
                               Otherside Of The Game
                                   Erykah Badu

Bass                                                         Erykah Badu
                                                               Questlove 
                                                            James Poyser
                                                         Richard Nichols
Arranged for:
5 String Electric Bass
4 String Electric Bass

As played by Leonard "Hub" Hubbard

Intro

|----------|-----------------|-----------------|-----------------|-----------------|
|----------|-----------------|-----------------|-----------------|-----------------|
|----------|-----------------|---4-3-2---------|-----------------|------------/4---|
|-2/14\2---|-2---------------|-------------2-1-|-----------------|---6-5-4-------2-|
|----------|-----------------|-----------------|-4---------------|-----------------|
  E E  Q     W                 E E E Q.    E E   W                 E E E Q.    E E

|-----------------|-----------------|-----------------|-----------------|
|-----------------|-----------------|-----------------|-----------------|
|-----------------|---4-3-2---------|-----------------|-------------2-3-|
|(2)--------------|-------------2-1-|-----------------|-----------------|
|-----------------|-----------------|-4---------------|(4)--------------|
  W                 E E E Q.    E E   W                 H.        E S S

Chorus 1

|-----------------|---------------------|-----------------|---------------------|
|-----------------|-------2---2---------|-----------------|-------2---2---------|
|-4---------------|---------0---0---2-3-|-4---------------|---------0---0---2-3-|
|-------4---------|---0-0---------------|-------4---------|---0-0---------------|
|-----------------|---------------------|-----------------|---------------------|
  Q   E E H         E E E.S S S Q   S S   Q   E E H         E E E.S S S Q   S S 

|-----------------|---------------------|-----------------|-------------------|
|-----------------|-------2---2---------|-----------------|-----------2-------|
|-4---------------|---------0---0---2-3-|-4---------------|-------------0-0---|
|-------4---------|---0-0---------------|-------4---------|---0-0-------------|
|-----------------|---------------------|-----------------|-------------------|
  Q   E E H         E E E.S S S Q   S S   Q   E E H         E E E E S S E Q

Verse 1

|-----------------|-----------------|-----------------|-----------------|
|-----------------|-----------------|---------2-------|-------2---------|
|-----------------|-----------------|-------2-------2-|-----------------|
|-4-------4-------|-4-------4-3-2-0-|(0)--------------|-0-------0-2-3-4-|
|-------4-------4-|-------4---------|-----------------|-----------------|
  Q   E.S Q   E.S   Q   E.S E E E E   Q   E.S Q   E.S   Q   E.S E E E E 

|-----------------|-----------------|-----------------|-----------------|
|-----------------|-----------------|---------2-------|-------2---------|
|-------6---------|-----------------|-------2-------2-|-----------------|
|(4)------4-------|-4-------4-3-2-0-|(0)--------------|-0---------2-3-4-|
|---------------4-|-------4---------|-----------------|-----------------|
  Q   E.S Q   E.S   Q   E.S E E E E   Q   E.S Q   E.S   Q   E.S E E E E 

|-----------------|-----------------|-----------------|-----------------|
|-----------------|-----------------|---------2-------|---------2-------|
|-------6---------|-----------------|-------2-------2-|-------2---------|
|(4)------4-------|-4-------4-3-2-0-|(0)--------------|-0---------0-3-4-|
|---------------4-|-------4---------|-----------------|-----------------|
  Q   E.S Q   E.S   Q   E.S E E E E   Q   E.S Q   E.S   Q   E.S E E E E 

|-----------------|-----------------|-----------------|-----------------|
|-----------------|-----------------|---------2-------|-----------------|
|-------6---------|-----------------|-------2-------2-|-------------2-3-|
|(4)------4-------|-4-------4-3-2-0-|(0)--------------|-0---------0-----|
|---------------4-|-------4---------|-----------------|-----------------|
  Q   E.S Q   E.S   Q   E.S E E E E   Q   E.S Q   E.S   Q   H     E S S

Chorus 2

|-----------------|---------------------|-----------------|---------------------|
|-----------------|-------2---2---------|-----------------|-------2---2---------|
|-4---------------|---------0---0---2-3-|-4---------------|---------0---0---2-3-|
|-------4---------|---0-0---------------|-------4---------|---0-0---------------|
|-----------------|---------------------|-----------------|---------------------|
  Q   E E H         E E E.S S S Q   S S   Q   E E H         E E E.S S S Q   S S 

|-----------------|---------------------|-----------------|-------------------|
|-----------------|-------2---2---------|-----------------|-----------2-------|
|-4---------------|---------0---0---2-3-|-4---------------|-------------0-0---|
|-------4---------|---0-0---------------|-------4---------|---0-0-------------|
|-----------------|---------------------|-----------------|-------------------|
  Q   E E H         E E E.S S S Q   S S   Q   E E H         E E E E S S E Q

Verse 2

|-----------------|-----------------|-----------------|-----------------|
|-----------------|-----------------|-----------------|-2-----2---------|
|-------6-------6-|-----------------|-------2-------2-|-----------------|
|-4-------4-------|-4-------4-3-2-0-|(0)------0-------|---------0-2-3-4-|
|-----------------|-------4---------|-----------------|-----------------|
  Q   E.S Q   E.S   Q   E.S E E E E   Q   E.S Q   E.S   Q   E.S E E E E 

|-----------------|-----------------|-----------------|-----------------|
|-----------------|-----------------|---------2-------|-----------------|
|-------6---------|-----------------|-------2-------2-|-----------------|
|(4)------4-------|-4-------4-3-2-0-|(0)--------------|-0-----------3-4-|
|---------------4-|-------4---------|-----------------|-----------------|
  Q   E.S Q   E.S   Q   E.S E E E E   Q   E.S Q   E.S   Q   Q   Q   E E 

|-----------------|-----------------|-----------------|-----------------|
|-----------------|-----------------|---------2-------|-----------------|
|-------6-------6-|-----------------|-------2-------2-|-----------------|
|(4)------4-------|-4-------4-3-2-0-|(0)--------------|-0---------2-3-4-|
|-----------------|-------4---------|-----------------|-----------------|
  Q   E.S Q   E.S   Q   E.S E E E E   Q   E.S Q   E.S   Q   Q   E E E E 

|-----------------|-----------------|-----------------|-----------------|
|-----------------|-----------------|---------2-------|-----------------|
|-------6---------|-----------------|-------2-------2-|-----------------|
|(4)------4-------|-4-------4-3-2-0-|(0)--------------|-0--------0/12\0-|
|---------------4-|-------4---------|-----------------|-----------------|
  Q   E.S Q   E.S   Q   E.S E E E E   Q   E.S Q   E.S   Q   Q  E E  E E

Bridge 1

|-----------------|-----------------|-----------------|-----------------|
|-----------------|-----------------|-----------------|-----------------|
|-------4---------|---4-3-2---------|---------6-------|------------/4---|
|-2-------2-------|-2-----------2-1-|-------6-------6-|---6-5-4-------2-|
|---------------4-|-----------------|-4---------------|-4---------------|
  Q   E.S Q   E.S   E E E Q.    E E   Q   E.S Q   E.S   E E E Q.    E E

|-----------------|-----------------|-----------------|-----------------|
|-----------------|-----------------|-----------------|-----------------|
|-------4-------4-|---4-3-2---------|---------6-------|-----------0-2-3-|
|(2)------2-------|-2-----------2-1-|-------6-------6-|-----------------|
|-----------------|-----------------|-4---------------|-4---------------|
  Q   E.S Q   E.S   E E E Q.    E E   Q   E.S Q   E.S   Q   H     E S S

Chorus 3

|-----------------|---------------------|-----------------|---------------------|
|-----------------|-------2---2---------|-----------------|-------2---2---------|
|-4---------------|---------0---0---2-3-|-4---------------|---------0---0---2-3-|
|-------4---------|---0-0---------------|-------4---------|---0-0---------------|
|-----------------|---------------------|-----------------|---------------------|
  Q   E E H         E E E.S S S Q   S S   Q   E E H         E E E.S S S Q   S S 

|-----------------|---------------------|-----------------|-------------------|
|-----------------|-------2---2---------|-----------------|-------2---2-------|
|-4---------------|---------0---0---2-3-|-4---------------|---------0---0-----|
|-------4---------|---0-0---------------|-------4---------|---0-0-------------|
|-----------------|---------------------|-----------------|-------------------|
  Q   E E H         E E E.S S S Q   S S   Q   E E H         E E E.S S S Q.   

Verse 3

|-----------------|-----------------|-----------------|-----------------|
|-----------------|-----------------|-----------------|-2-----2---------|
|-------6-------6-|-----------------|-------2-------2-|-----------------|
|-4-------4-------|-4-------4-3-2-0-|(0)------0-------|---------0-2-3-4-|
|-----------------|-------4---------|-----------------|-----------------|
  Q   E.S Q   E.S   Q   E.S E E E E   Q   E.S Q   E.S   Q   E.S E E E E 

|-----------------|-----------------|-----------------|-----------------|
|-----------------|-----------------|---------2-------|-----------------|
|-------6-------6-|-----------------|-------2-------2-|-----------0-2-3-|
|(4)------4-------|-4-------4-3-2-0-|(0)--------------|-0---------------|
|-----------------|-------4---------|-----------------|-----------------|
  Q   E.S Q   E.S   Q   E.S E E E E   Q   E.S Q   E.S   Q   H     E S S 

Chorus 4

|-----------------|---------------------|-----------------|---------------------|
|-----------------|-------2---2---------|-----------------|-------2---2---------|
|-4---------------|---------0---0---2-3-|-4---------------|---------0---0---2-3-|
|-------4---------|---0-0---------------|-------4---------|---0-0---------------|
|-----------------|---------------------|-----------------|---------------------|
  Q   E E H         E E E.S S S Q   S S   Q   E E H         E E E.S S S Q   S S

|-----------------|---------------------|-----------------|---------------------|
|-----------------|-------2---2---------|-----------------|-------2---2---------|
|-4---------------|---------0---0---2-3-|-4---------------|---------0---0---2-3-|
|-------4---------|---0-0---------------|-------4---------|---0-0---------------|
|-----------------|---------------------|-----------------|---------------------|
  Q   E E H         E E E.S S S Q   S S   Q   E E H         E E E.S S S Q   S S

|-----------------|---------------------|-----------------|---------------------|
|-----------------|-------2---2---------|-----------------|-------2---2---------|
|-4---------------|---------0---0---2-3-|-4---------------|---------0---0---2-3-|
|-------4---------|---0-0---------------|-------4---------|---0-0---------------|
|-----------------|---------------------|-----------------|---------------------|
  Q   E E H         E E E.S S S Q   S S   Q   E E H         E E E.S S S Q   S S

|-----------------|---------------------|
|-----------------|-------2---2---------|
|-4---------------|---------0---0---2-3-|
|-------4---------|-----0---------------|
|-----------------|---------------------|
  Q   E E H         E E E.S S S Q   S S 

Bridge 2/Outro

|-----------------|-----------------|-----------------|-----------------|
|-----------------|-----------------|-----------------|-----------------|
|-------4---------|---4-3-2---------|---------6-------|------------/4---|
|-2-------2-------|-2-----------2-1-|-------6-------6-|---6-5-4-------2-|
|---------------4-|-----------------|-4---------------|-4---------------|
  Q   E.S Q   E.S   E E E Q.    E E   Q   E.S Q   E.S   E E E Q.    E E

|-----------------|-----------------|-----------------|-----------------|
|-----------------|-----------------|-----------------|-----------------|
|-------4---------|---4-3-2---------|---------6-------|------------/4---|
|(2)------2-------|-2-----------2-1-|-------6-------6-|---6-5-4-------2-|
|---------------4-|-----------------|-4---------------|-4---------------|
  Q   E.S Q   E.S   E E E Q.    E E   Q   E.S Q   E.S   E E E Q.    E E

|-----------------|-----------------|-----------------|-----------------|
|-----------------|-----------------|-----------------|-----------------|
|-------4-------4-|---4-3-2---------|---------6-------|------------/4---|
|(2)------2-------|-2-----------2-1-|-------6-------6-|---6-5-4-------2-|
|-----------------|-----------------|-4---------------|-4---------------|
  Q   E.S Q   E.S   E E E Q.    E E   Q   E.S Q   E.S   E E E Q.    E E

|-----------------|-----------------|-----------------|-----------------|
|-----------------|-----------------|-----------------|-----------------|
|-------4-------4-|---4-3-2-----2-1-|(1)------1-----1-|-1----------/4---|
|(2)------2-------|-2---------------|-------1---------|-------4-------2-|
|-----------------|-----------------|-----------------|---6-4-----------|
  Q   E.S Q   E.S   E E E Q.    E E   Q   E.S Q   E.S   E E E Q.    E E

|-----------------|-----------------|-----------------|-----------------|
|-----------------|-----------------|-----------------|-----------------|
|-------4-------4-|---4-3-2---------|---------6-------|------------/4---|
|(2)------2-------|-2-----------2-1-|-------6-------6-|---6-5-4-------2-|
|-----------------|-----------------|-4---------------|-4---------------|
  Q   E.S Q   E.S   E E E Q.    E E   Q   E.S Q   E.S   E E E Q.    E E

|-----------------|-----------------|-----------------|-----------------|
|-----------------|-----------------|-----------------|-----------------|
|-------4-------4-|---4-3-2---------|---------6-------|------------/4---|
|(2)------2-------|-2-----------2-1-|-------6-------6-|---6-5-4-------2-|
|-----------------|-----------------|-4---------------|-4---------------|
  Q   E.S Q   E.S   E E E Q.    E E   Q   E.S Q   E.S   E E E Q.    E E

|-----------------|-----------------|-----------------|-----------------|
|-----------------|-----------------|-----------------|-----------------|
|-------4-------4-|---4-3-2-----2-1-|(1)------1-----1-|-1----------/4---|
|(2)------2-------|-2---------------|-------1---------|-------4-------2-|
|-----------------|-----------------|-----------------|---6-4-----------|
  Q   E.S Q   E.S   E E E Q.    E E   Q   E.S Q   E.S   E E E Q.    E E

|-----------------|-----------------|-----------------|-----------------|
|-----------------|-----------------|-----------------|-----------------|
|-------4-------4-|---4-3-2-----2-1-|(1)------1-----1-|-1----------/4---|
|(2)------2-------|-2---------------|-------1---------|-------4-------2-|
|-----------------|-----------------|-----------------|---6-4-----------|
  Q   E.S Q   E.S   E E E Q.    E E   Q   E.S Q   E.S   E E E Q.    E E

|-----------------|-----------------|-----------------|-----------------|
|-----------------|-----------------|-----------------|-----------------|
|-------4-------4-|---4-3-2---------|---------6-------|------------/4---|
|(2)------2-------|-2-----------2-1-|-------6-------6-|---6-5-4-------2-|
|-----------------|-----------------|-4---------------|-4---------------|
  Q   E.S Q   E.S   E E E Q.    E E   Q   E.S Q   E.S   E E E Q.    S E.

|-----------------|-----------------|-----------------|-----------------||
|-----------------|-----------------|-----------------|-----------------||
|-----------------|-----------------|-----------------|-----------------||
|(2)--------------|(2)--------------|(2)--------------|(2)--------------||
|-----------------|-----------------|-----------------|-----------------||
  W                 W                 W                 W



Arrangement 1 - 4 String Bass

Intro

|----------|-----------------|-----------------|-----------------|-----------------|
|----------|-----------------|-----------------|-----------------|-----------------|
|----------|-----------------|---4-3-2---------|-6---------------|------------/4---|
|-2/14\2---|-2---------------|-------------2-1-|-----------------|---6-5-4-------2-|
  E E  Q     W                 E E E Q.    E E   W                 E E E Q.    E E

|-----------------|-----------------|-----------------|-----------------|
|-----------------|-----------------|-----------------|-----------------|
|-----------------|---4-3-2---------|-6---------------|(6)----------2-3-|
|(2)--------------|-------------2-1-|-----------------|-----------------|
  W                 E E E Q.    E E   W                 H.        E S S

Chorus 1

|-----------------|---------------------|-----------------|---------------------|
|-----------------|-------2---2---------|-----------------|-------2---2---------|
|-4---------------|---------0---0---2-3-|-4---------------|---------0---0---2-3-|
|-------4---------|---0-0---------------|-------4---------|---0-0---------------|
  Q   E E H         E E E.S S S Q   S S   Q   E E H         E E E.S S S Q   S S 

|-----------------|---------------------|-----------------|-------------------|
|-----------------|-------2---2---------|-----------------|-----------2-------|
|-4---------------|---------0---0---2-3-|-4---------------|-------------0-0---|
|-------4---------|---0-0---------------|-------4---------|---0-0-------------|
  Q   E E H         E E E.S S S Q   S S   Q   E E H         E E E E S S E Q

Verse 1

|-----------------|-----------------|-----------------|-----------------|
|-----------------|-----------------|---------2-------|-------2---------|
|-------6-------6-|-------6---------|-------2-------2-|-----------------|
|-4-------4-------|-4-------4-3-2-0-|(0)--------------|-0-------0-2-3-4-|
  Q   E.S Q   E.S   Q   E.S E E E E   Q   E.S Q   E.S   Q   E.S E E E E 

|-----------------|-----------------|-----------------|-----------------|
|-----------------|-----------------|---------2-------|-------2---------|
|-------6-------6-|-------6---------|-------2-------2-|-----------------|
|(4)------4-------|-4-------4-3-2-0-|(0)--------------|-0---------2-3-4-|
  Q   E.S Q   E.S   Q   E.S E E E E   Q   E.S Q   E.S   Q   E.S E E E E 

|-----------------|-----------------|-----------------|-----------------|
|-----------------|-----------------|---------2-------|---------2-------|
|-------6-------6-|-------6---------|-------2-------2-|-------2---------|
|(4)------4-------|-4-------4-3-2-0-|(0)--------------|-0---------0-3-4-|
  Q   E.S Q   E.S   Q   E.S E E E E   Q   E.S Q   E.S   Q   E.S E E E E 

|-----------------|-----------------|-----------------|-----------------|
|-----------------|-----------------|---------2-------|-----------------|
|-------6-------6-|-------6---------|-------2-------2-|-------------2-3-|
|(4)------4-------|-4-------4-3-2-0-|(0)--------------|-0---------0-----|
  Q   E.S Q   E.S   Q   E.S E E E E   Q   E.S Q   E.S   Q   H     E S S

Chorus 2

|-----------------|---------------------|-----------------|---------------------|
|-----------------|-------2---2---------|-----------------|-------2---2---------|
|-4---------------|---------0---0---2-3-|-4---------------|---------0---0---2-3-|
|-------4---------|---0-0---------------|-------4---------|---0-0---------------|
  Q   E E H         E E E.S S S Q   S S   Q   E E H         E E E.S S S Q   S S 

|-----------------|---------------------|-----------------|-------------------|
|-----------------|-------2---2---------|-----------------|-----------2-------|
|-4---------------|---------0---0---2-3-|-4---------------|-------------0-0---|
|-------4---------|---0-0---------------|-------4---------|---0-0-------------|
  Q   E E H         E E E.S S S Q   S S   Q   E E H         E E E E S S E Q

Verse 2

|-----------------|-----------------|-----------------|-----------------|
|-----------------|-----------------|-----------------|-2-----2---------|
|-------6-------6-|-------6---------|-------2-------2-|-----------------|
|-4-------4-------|-4-------4-3-2-0-|(0)------0-------|---------0-2-3-4-|
  Q   E.S Q   E.S   Q   E.S E E E E   Q   E.S Q   E.S   Q   E.S E E E E 

|-----------------|-----------------|-----------------|-----------------|
|-----------------|-----------------|---------2-------|-----------------|
|-------6-------6-|-------6---------|-------2-------2-|-----------------|
|(4)------4-------|-4-------4-3-2-0-|(0)--------------|-0-----------3-4-|
  Q   E.S Q   E.S   Q   E.S E E E E   Q   E.S Q   E.S   Q   Q   Q   E E 

|-----------------|-----------------|-----------------|-----------------|
|-----------------|-----------------|---------2-------|-----------------|
|-------6-------6-|-------6---------|-------2-------2-|-----------------|
|(4)------4-------|-4-------4-3-2-0-|(0)--------------|-0---------2-3-4-|
  Q   E.S Q   E.S   Q   E.S E E E E   Q   E.S Q   E.S   Q   Q   E E E E 

|-----------------|-----------------|-----------------|-----------------|
|-----------------|-----------------|---------2-------|-----------------|
|-------6-------6-|-------6---------|-------2-------2-|-----------------|
|(4)------4-------|-4-------4-3-2-0-|(0)--------------|-0--------0/12\0-|
  Q   E.S Q   E.S   Q   E.S E E E E   Q   E.S Q   E.S   Q   Q  E E  E E

Bridge 1

|-----------------|-----------------|-----------------|-----------------|
|-----------------|-----------------|-----------------|-----------------|
|-------4-------6-|---4-3-2---------|-6-------6-------|-6----------/4---|
|-2-------2-------|-2-----------2-1-|-------6-------6-|---6-5-4-------2-|
  Q   E.S Q   E.S   E E E Q.    E E   Q   E.S Q   E.S   E E E Q.    E E

|-----------------|-----------------|-----------------|-----------------|
|-----------------|-----------------|-----------------|-----------------|
|-------4-------4-|---4-3-2---------|-6-------6-------|-6---------0-2-3-|
|(2)------2-------|-2-----------2-1-|-------6-------6-|-----------------|
  Q   E.S Q   E.S   E E E Q.    E E   Q   E.S Q   E.S   Q   H     E S S

Chorus 3

|-----------------|---------------------|-----------------|---------------------|
|-----------------|-------2---2---------|-----------------|-------2---2---------|
|-4---------------|---------0---0---2-3-|-4---------------|---------0---0---2-3-|
|-------4---------|---0-0---------------|-------4---------|---0-0---------------|
  Q   E E H         E E E.S S S Q   S S   Q   E E H         E E E.S S S Q   S S 

|-----------------|---------------------|-----------------|-------------------|
|-----------------|-------2---2---------|-----------------|-------2---2-------|
|-4---------------|---------0---0---2-3-|-4---------------|---------0---0-----|
|-------4---------|---0-0---------------|-------4---------|---0-0-------------|
  Q   E E H         E E E.S S S Q   S S   Q   E E H         E E E.S S S Q.

Verse 3

|-----------------|-----------------|-----------------|-----------------|
|-----------------|-----------------|-----------------|-2-----2---------|
|-------6-------6-|-------6---------|-------2-------2-|-----------------|
|-4-------4-------|-4-------4-3-2-0-|(0)------0-------|---------0-2-3-4-|
  Q   E.S Q   E.S   Q   E.S E E E E   Q   E.S Q   E.S   Q   E.S E E E E 

|-----------------|-----------------|-----------------|-----------------|
|-----------------|-----------------|---------2-------|-----------------|
|-------6-------6-|-------6---------|-------2-------2-|-----------0-2-3-|
|(4)------4-------|-4-------4-3-2-0-|(0)--------------|-0---------------|
  Q   E.S Q   E.S   Q   E.S E E E E   Q   E.S Q   E.S   Q   H     E S S 

Chorus 4

|-----------------|---------------------|-----------------|---------------------|
|-----------------|-------2---2---------|-----------------|-------2---2---------|
|-4---------------|---------0---0---2-3-|-4---------------|---------0---0---2-3-|
|-------4---------|---0-0---------------|-------4---------|---0-0---------------|
  Q   E E H         E E E.S S S Q   S S   Q   E E H         E E E.S S S Q   S S 

|-----------------|---------------------|-----------------|---------------------|
|-----------------|-------2---2---------|-----------------|-------2---2---------|
|-4---------------|---------0---0---2-3-|-4---------------|---------0---0---2-3-|
|-------4---------|---0-0---------------|-------4---------|---0-0---------------|
  Q   E E H         E E E.S S S Q   S S   Q   E E H         E E E.S S S Q   S S 

|-----------------|---------------------|-----------------|---------------------|
|-----------------|-------2---2---------|-----------------|-------2---2---------|
|-4---------------|---------0---0---2-3-|-4---------------|---------0---0---2-3-|
|-------4---------|---0-0---------------|-------4---------|---0-0---------------|
  Q   E E H         E E E.S S S Q   S S   Q   E E H         E E E.S S S Q   S S 

|-----------------|---------------------|
|-----------------|-------2---2---------|
|-4---------------|---------0---0---2-3-|
|-------4---------|---0-0---------------|
  Q   E E H         E E E.S S S Q   S S 

Bridge 2/Outro

|-----------------|-----------------|-----------------|-----------------|
|-----------------|-----------------|-----------------|-----------------|
|-------4-------6-|---4-3-2---------|-6-------6-------|-6----------/4---|
|-2-------2-------|-2-----------2-1-|-------6-------6-|---6-5-4-------2-|
  Q   E.S Q   E.S   E E E Q.    E E   Q   E.S Q   E.S   E E E Q.    E E

|-----------------|-----------------|-----------------|-----------------|
|-----------------|-----------------|-----------------|-----------------|
|-------4-------6-|---4-3-2---------|-6-------6-------|-6----------/4---|
|(2)------2-------|-2-----------2-1-|-------6-------6-|---6-5-4-------2-|
  Q   E.S Q   E.S   E E E Q.    E E   Q   E.S Q   E.S   E E E Q.    E E

|-----------------|-----------------|-----------------|-----------------|
|-----------------|-----------------|-----------------|-----------------|
|-------4-------4-|---4-3-2---------|-6-------6-------|-6----------/4---|
|(2)------2-------|-2-----------2-1-|-------6-------6-|---6-5-4-------2-|
  Q   E.S Q   E.S   E E E Q.    E E   Q   E.S Q   E.S   E E E Q.    E E

|-----------------|-----------------|-----------------|-----------------|
|-----------------|-----------------|-----------------|---3-1-----------|
|-------4-------4-|---4-3-2-----2-1-|(1)------1-----1-|-1----------/4---|
|(2)------2-------|-2---------------|-------1---------|-------4-------2-|
  Q   E.S Q   E.S   E E E Q.    E E   Q   E.S Q   E.S   E E E Q.    E E

|-----------------|-----------------|-----------------|-----------------|
|-----------------|-----------------|-----------------|-----------------|
|-------4-------4-|---4-3-2---------|-6-------6-------|-6----------/4---|
|(2)------2-------|-2-----------2-1-|-------6-------6-|---6-5-4-------2-|
  Q   E.S Q   E.S   E E E Q.    E E   Q   E.S Q   E.S   E E E Q.    E E

|-----------------|-----------------|-----------------|-----------------|
|-----------------|-----------------|-----------------|-----------------|
|-------4-------4-|---4-3-2---------|-6-------6-------|-6----------/4---|
|(2)------2-------|-2-----------2-1-|-------6-------6-|---6-5-4-------2-|
  Q   E.S Q   E.S   E E E Q.    E E   Q   E.S Q   E.S   E E E Q.    E E

|-----------------|-----------------|-----------------|-----------------|
|-----------------|-----------------|-----------------|---3-1-----------|
|-------4-------4-|---4-3-2-----2-1-|(1)------1-----1-|-1----------/4---|
|(2)------2-------|-2---------------|-------1---------|-------4-------2-|
  Q   E.S Q   E.S   E E E Q.    E E   Q   E.S Q   E.S   E E E Q.    E E

|-----------------|-----------------|-----------------|-----------------|
|-----------------|-----------------|-----------------|---3-1-----------|
|-------4-------4-|---4-3-2-----2-1-|(1)------1-----1-|-1----------/4---|
|(2)------2-------|-2---------------|-------1---------|-------4-------2-|
  Q   E.S Q   E.S   E E E Q.    E E   Q   E.S Q   E.S   E E E Q.    E E

|-----------------|-----------------|-----------------|-----------------|
|-----------------|-----------------|-----------------|-----------------|
|-------4-------4-|---4-3-2---------|-6-------6-------|-6----------/4---|
|(2)------2-------|-2-----------2-1-|-------6-------6-|---6-5-4-------2-|
  Q   E.S Q   E.S   E E E Q.    E E   Q   E.S Q   E.S   E E E Q.    S E.

|-----------------|-----------------|-----------------|-----------------||
|-----------------|-----------------|-----------------|-----------------||
|-----------------|-----------------|-----------------|-----------------||
|(2)--------------|(2)--------------|(2)--------------|(2)--------------||
  W                 W                 W                 W


Key to rhythm notations:

W - Whole Note/Semi-Brieve
H - Half Note/Minim
Q - Quarter Note/Crotchet       Q. - Dotted Quarter Note
E - Eight Note/Quaver           E. - Dotted Eight Note
S - Sixteenth Note/Semi-Quaver  S. - Dotted Sixteenth Note
   

            
            
Suggest correction
Creating personal tab
Creating personal tab
You can edit any tab online and save it as your Personal.

You can edit, replace or remove any tab part or add personal notes – all changes will be seen only by you.

Personal tabs can be accessed anytime from any device, even offline.
Learn more »
Give kudos to tab author, rate the tab!
1 2 3 4 5
comments
print report bad tab
guest
You may want to rate the tab now too:
select rating
Wanna post a correction for this tab? Suggest correction