Oops, an error
Loading. Please wait.

Ghostless Tab

10 views 1 this week
no commentswrite comment
1 2 3 4 5
3 more votes to show rating
add to favorites
launch autoscroll
font size
0
reset
how to read this tab
guitar tuner
Autoscroll
slow
fast
+/-
esc
set tempo
stop
Help us to improve Ultimate-Guitar.com Take our survey!
×
Author
Difficulty
novice
About this tab version
Well this version is far from perfect but it's something to start with. Was this info helpful? Yes No
[Solo]

e|--------------------2---0-------2------------------------------------------|
B|--------4---2---------------------4-----4---2-4-----4------4-----2------2--|
G|----1-2---------1-2---------1-2--------------------------------------------|
D|------------------------------------4-----------4--------------------------|
A|--4-----------4-----------4-------2-----------2------------0-4----------0-4|
E|---------------------------------------------------------------------------|

e|-------------2-2------2---4-5---4-4-------------------------------0--------|
B|---0-4-----------------------------------------------4------4-------4---4--|
G|------------------------------------1---2----------------------------------|
D|---------1---------------------------------------6-7------------4---------4|
A|---------2------------------------4------------4------------2-----------2--|
E|---------------------------------------------------------------------------|

e|-----0---0------------------------------0-2-4---------5---4-4--------------|
B|-0-4------------2------2-----2------------------4---------------------4----|
G|---------------------------------------------------------------------------|
D|------------------------------------1-----------1---4---------6---7-------6|
A|---------0-------------0-4----------------------------------4-----------4--|
E|---------------------------------------------------------------------------|

e|-------2--------------------0------0-------------------------------2------2|
B|---4-------------4---4-------------------2------4-----0-2---4--------------|
G|---------------------------------------------------------------------------|
D|-7----------------------------------------------------------1-------------1|
A|-------2-------------2-------------0-4----------0-4---------2-------------2|
E|---------------------------------------------------------------------------|

e|---4-5---4-4---------------------2---------------------0-------------------|
B|---------------------4-------4-----------4---4---4-2---4-------------------|
G|---------------------------------------------------------------------------|
D|-------------6---7-------6-7---------4-----------------7-------------------|
A|-----------4-----------4---------2-----------2---------0-------------------|
E|---------------------------------------------------------------------------|

e|---------------2---4-------2---4---2-4-0-------2-4-0----------------------4|
B|-------------------------------------------2-----------2---------------2---|
G|---------------------------------------------------------------6---7-------|
D|---------2-6-7-------2-6-7-------0-----7-----0-4---7-------4---------------|
A|---------------------------------------------------------------------------|
E|---------------------------------------------------------------------------|
Suggest correction
Give kudos to tab author, rate the tab!
1 2 3 4 5
comments
print report bad tab
guest
You may want to rate the tab now too:
select rating
Wanna post a correction for this tab? Suggest correction