Oops, an error
Loading. Please wait.

10 Miles Wide Bass Tab

version 1
version 1

Whole song

Interactive

13,987 views 12 this week
2 commentsread comments
1 2 3 4 5
accurate
x 2
add to favorites
launch autoscroll
font size
0
reset
guitar tuner
Tab Pro tools
  • play this tab
  • loop segment
  • change instrument
  • show fretboard
  • metronome
Autoscroll
slow
fast
+/-
esc
set tempo
stop
10 miles wide
tuning: drop c

Intro:
F|-----------|
C|-----------|
G|-----------|
C|---8----8-8|

F|-------------|X2
C|-------------|
G|-------------|
C|55-3-55-3-3--|

Verse:
F|------------|X3
C|------------|
G|------------|
C|55-3-55-3-5X|

Pre-Chorus:
F|------------|
C|------------|
G|------------|
C|555555555555|

Chorus
F|----------------------------|
C|----------------------------|
G|5-44444-33-2-5-44444--------|
C|--------------------5-5--5-5|

F|-----------------------|
C|-----------------------|
G|5-44444-33-2-5-44444-3X|
C|-----------------------|

Verse:
F|-------------|X2
C|-------------|
G|-------------|
C|55-3-55-3-3--|

F|------------|X3
C|------------|
G|------------|
C|55-3-55-3-5X|

Pre-Chorus:
F|------------|
C|------------|
G|------------|
C|555555555555|

Chorus

F|----------------------------|
C|----------------------------|
G|5-44444-33-2-5-44444--------|
C|--------------------5-5--5-5|

F|-----------------------|
C|-----------------------|
G|5-44444-33-2-5-44444-3X|
C|-----------------------|

F|----------------------------|
C|----------------------------|
G|5-44444-33-2-5-44444--------|
C|--------------------5-5--5-5|

F|-----------------------|
C|-----------------------|
G|5-44444-33-2-5-44444-3X|
C|-----------------------|

break
F|--------------------------------------------------------|X2
C|--------------------------------------------------------|
G|--------------------------------------------------------|
C|5--5-5-5-5-5-5-5-5-4--4-4-4-4-4-4-4-4-3--3-3-3-3-3-3-3-3|

F|--------------------------------------------------------------|
C|--------------------------------------------------------------|
G|--------------------------------------------------------------|
C|5--5-5-5-5-5-5-5-5-6--6-6-6-6-6-6-6-6-7--7-7-7-7-7-7-777777777|

F|----------------|
C|----------------|
G|----------------|
C|---8----8-8--6-6|

chorus
F|----------------------------|
C|----------------------------|
G|5-44444-33-2-5-44444--------|
C|--------------------5-5--5-5|

F|-----------------------|X3
C|-----------------------|
G|5-44444-33-2-5-44444-3X|
C|-----------------------|

F|-----------------|
C|-----------------|
G|-----------------|
C|777777-6-777777-6|

F|-------------|X4
C|-------------|
G|-------------|
C|55-3-55-3-3--|
comments
We did not receive enough feedback on this tab! Please rate:
print report bad tab
1 2 3 4 5
2 comments total.
-1 reply
maxgreenfan wrote on June 10 2009, 10:12 am

Max plays it on a five string ;)

0 reply
hereticfive wrote on October 4 2012, 08:51 pm

Max doesnt play on just 2 strings, he knows how to really play bass

I want to post or [tab]
guest
You may want to rate the tab now too:
select rating
Please do not post tabs as comments. Select "correction" instead!