Oops, an error
Loading. Please wait.

10 Miles Wide Bass Tab

version 2
version 2

Whole song

Interactive

14,209 views 3 this week
no commentswrite comment
1 2 3 4 5
accurate
x 5
add to favorites
launch autoscroll
font size
0
reset
guitar tuner
Autoscroll
slow
fast
+/-
esc
set tempo
stop
Help us to improve Ultimate-Guitar.com Take our survey!
×
Contributor
Escape the Fate
10 Miles Wide
Drop C
Tabbed By: Synysterblack

-Intro-
F|----------------|
C|----------------|
G|----------------|
C|-12\----33-33---|

-Pre-Verse-
F|-------------------------------------------|
C|-------------------------------------------|
G|---------7-4-0-4-7-4---------7-4-0-4-7-4---|
C|-0-00-3-0------------0-00-3-0--------------|

-Verse-
F|--------------------------------------------|
C|--------------------------------------------|
G|-----8--------------8--------------8--------|
C|-0-00-5-3-0--12\0-00-5-3-0--12\0-00-5-3-0---|

-Pre-chorus-
F|-------------------------|
C|--------------2~22-------|
G|----------0000----4444---|
C|-12\-3~333---------------|

-Chorus-
F|------------------------------------------------|
C|------------------------------------------------|
G|-5~553-----------4~3~4~333-5~553------------4---|
C|------8~887-3~335---------------8~887-3~3355----|

-Pre-Verse 2-
F|----------------------------------------------|
C|----------------------------------------------|
G|------------7-4-0-4-7-4---------7-4-0-4-7-4---|
C|-12\0-00-3-0------------0-00-3-0--------------|

-Verse 2-
F|--------------------------------------------|
C|--------------------------------------------|
G|-----8--------------8--------------8--------|
C|-0-00-5-3-0--12\0-00-5-3-0--12\0-00-5-3-0---|

-Pre-chorus 2-
F|-------------------------|
C|--------------2~22-------|
G|----------0000----4444---|
C|-12\-3~333---------------|

-Chorus 2-
F|-------------------------------------------------------|
C|------------------------------------------------243----|
G|-5~553-----------4~3~4~333-5~553------------4~44---4---|
C|------8~887-3~335---------------8~887-3~3355-----------|

F|------------------------------------------------|
C|------------------------------------------------|
G|-5~553-----------4~3~4~333-5~553------------4---|
C|------8~887-3~335---------------8~887-3~3355----|

-Bridge-
F|----------------------------------------------------------------------|
C|----------------------------------------------------------------------|
G|----5~-8~-10~-12~-10~-8~--4~-8~-10~-12~-10~-8~---/8~-10~-12~-10~-8~---|
C|-12\-------------------------------------------8~---------------------|

F|------------------|
C|------------------|
G|---/8\4~-/8\444---|
C|-7~---------------|

F|---------------------------------------------------------------------|
C|---------------------------------------------------------------------|
G|---5~-8~-10~-12~-10~-8~--4~-8~-10~-12~-10~-8~---/8~-10~-12~-10~-8~---|
C|-8\-------------------------------------------8~---------------------|

F|------------------|
C|------------------|
G|---/8\4~-/8\444---|
C|-7~---------------|

F|---------------------------------------------|
C|---------------------------------------------|
G|-5~-8~-10~-12~-10~-8~-4~-8~-10~-12~-10~-8~---|
C|---------------------------------------------|

F|-----------------------------------------------------|
C|-----------------------------------------------------|
G|-----------------------------------------------------|
C|-8887888788878887888788878888/1919191919191919-12\---|

-Break-
F|---------------|
C|---------------|
G|---------------|
C|-10-12\--3-0---|

-Chorus 3-
F|------------------------------------------------------------|
C|------------------------------------------------------------|
G|-\5~553-----------4~3~4~333-5~553------------4~-4-5-4-4-4---|
C|-------8~887-3~335---------------8~887-3~3355---------------|

F|-----------------------------------------------|
C|-------------------------------2~225-3~337-5---|
G|-5~553--------------------5~558----------------|
C|------8~887-3~335-5~7~5~7~---------------------|

F|------------------|
C|------------------|
G|------------------|
C|-777775-777775\---|

-End-
F|---------------------------------------------------------------|
C|---------------------------------------------------------------|
G|---------7-4-0-4-7-4---------7-4-0-4-7-4---------7-4-0-4-7-4---|
C|-0-00-3-0------------0-00-3-0------------0-00-3-0--------------|

F|--------------|
C|--------------|
G|-----8--------|
C|-0-00-5-3-0---|
comments
print report bad tab
I want to post or [tab]
guest
You may want to rate the tab now too:
select rating
Please do not post tabs as comments. Select "correction" instead!