Oops, an error
Loading. Please wait.

10 Miles Wide Tab

version 2
version 2

Whole song

Interactive

6,408 views 1 this week
5 commentsread comments
1 2 3 4 5
worth learning
x 6
add to favorites
launch autoscroll
font size
0
reset
how to read this tab
guitar tuner
Tab Pro tools
  • play this tab
  • loop segment
  • change instrument
  • show fretboard
  • metronome
Autoscroll
slow
fast
+/-
esc
set tempo
stop
Contributor
10 MILES WIDE- Escape the Fate
Drop C
E-mail: UnAverageKid2@aim.com

I’d like to thank gh3tto bot for correcting me on the solo.

~= vibrato
h= hammer-on
p= pull-off
x= scratch
\= slide down
/= slide up
//= pick slide
b= bend
bb= slow bend
*= pinch harmonic

Intro

Guitar 1
D|----------------------|----------------xxxx|
A|----------------------|----------------xxxx|
F|----------------------|----------------xxxx|
C|----------------------|----------------xxxx|
G|5*p0----8*p0---4-5h7p5|5*p0----8*p0----xxxx|
C|—–--0000—–--3-0-------|—–--0000—–--3-0-xxxx|
pm    ....                   ....
(continued)
D|----------------------|----------------------|
A|----------------------|----------------------|
F|----------------------|----------------------|
C|----------------------|----------------------|
G|5*p0----8*p0---4-5h7p5|5*p0----8*p0---4-5h7p5|
C|—–--0000—–--3-0-------|—–--0000—–--3-0-------|
pm    ....                   ....

Guitar 2
D|----------------------|----------------xxxx|
A|----------------------|----------------xxxx|
F|----------------------|7*--------------xxxx|
C|----------------------|----------------xxxx|
G|----------------------|----------------xxxx|
C|----------------------|----------------xxxx|

Verse 1

Guitar 1
D|------------|------------|------------|----------------|
A|------------|------------|------------|----------------|
F|------------|------------|------------|----------------|
C|------------|------------|------------|----------------|
G|5-58585-----|5-58585-----|5-58585-----|--------44447777|
C|--------7-7\|--------7-7\|--------7-7\|55558888--------|
pm. ..... . .  . ..... . .  . ..... . .  ................

Chorus

Guitar 1
D|--------|--------|--------|--------|
A|--------|--------|--------|--------|
F|--------|--------|--------|--------|
C|7-7533-3|3-3532-2|7-7533-3|3-3532-2|
G|5-5301-1|3-3532-2|5-5301-1|3-3532-2|
C|--------|3-3532-2|--------|3-3532-2|

Solo

Guitar 1
D|----------------------|----------------------|
A|----------------------|----------------------|
F|----------------------|----------------------|
C|----------------------|----------------------|
G|5*p0----8*p0---4-5h7p5|5*p0----8*p0---4-5h7p5|
C|—–--0000—–--3-0-------|—–--0000—–--3-0-------|
pm    ....                   ....
(continued)
D|----------------------|----------------------|
A|----------------------|----------------------|
F|----------------------|----------------------|
C|----------------------|----------------------|
G|5*p0----8*p0---4-5h7p5|5*p0----8*p0---4-5h7p5|
C|—–--0000—–--3-0-------|—–--0000—–--3-0-------|
pm    ....                   ....

Guitar 2 (thanks to gh3tto bot for correcting me)
D|-----------------------1012*10*13*|
A|/13b15~101013101313b15~-----------|
F|----------------------------------|
C|----------------------------------|
G|----------------------------------|
C|----------------------------------|

Verse 2

Guitar 1
D|------------|------------|------------|----------------|
A|------------|------------|------------|----------------|
F|------------|------------|------------|----------------|
C|------------|------------|------------|----------------|
G|5-58585-----|5-58585-----|5-58585-----|--------44447777|
C|--------7-7\|--------7-7\|--------7-7\|55558888--------|
pm. ..... . .  . ..... . .  . ..... . .  ........(release)

Guitar 2
D|10\------5—–-|----------------|--------5—–-|555577771212121213–-13–-|
A|-------6—–-6-|--------6*----6*|------6—–-6-|6666888814141414--15–-15|
F|-----77-7-7-7|----7777--7777--|----77-7-7-7|------------------------|
C|-------------|----------------|------------|------------------------|
G|-------------|----------------|------------|------------------------|
C|-------------|----------------|------------|------------------------|
pm     ........     ....  ....       ........ ........ . . . .

Chorus

Guitar 1
D|--------|--------|--------|--------|
A|--------|--------|--------|--------|
F|--------|--------|--------|--------|
C|7-7533-3|3-3532-2|7-7533-3|3-3532-2|x2
G|5-5301-1|3-3532-2|5-5301-1|3-3532-2|
C|--------|3-3532-2|--------|3-3532-2|

Guitar 2 (on second repeat of Guitar 1)
D|-----------------------|--------------------------------|
A|-----------------------|--------------------------------|
F|77777771010101010101010|14141414141414141212121212121212|
C|xxxxxxx x x x x x x x x| x x x x x x x x x x x x x x x x|
G|5555555 8 8 8 8 8 8 8 8|12121212121212121010101010101010|
C|-----------------------|--------------------------------|
(continued)
D|-----------------|-----------------|
A|-----------------|-----------------|
F|7-7-79109-9-91012|10-10-10121414—–-|
C|x-x-xx xx-x-x x x| x- x- x x x x---|
G|5-5-57 87-7-7 810| 8- 8- 8101212---|
C|-----------------|-----------------|

Bridge

Guitar 1
D|-------------------------------|-----------------------------|
A|-------------------------------|-----------------------------|
F|-------------------------------|-----------------------------|
C|-------------------------------|-----------------------------|
G|5~8~10*~12~10~8~5~8~10*~12~10~8|5~8~10*~12~10~8~5~7~4/8~-7~5~|
C|-------------------------------|-----------------------------|
(continued)
D|-------------------------------|------------------------------|
A|-------------------------------|------------------------------|
F|-------------------------------|------------------------------|
C|-------------------------------|------------------------------|
G|5~8~10*~12~10~8~5~8~10*~12~10~8|5~8~10*~12~10~8~5~7~4/12~10~8~|
C|-------------------------------|------------------------------|
(continued)(Guitar 2 enters here)
D|-------------------------------|--------------------------------|
A|-------------------------------|--------------------------------|
F|-------------------------------|--------------------------------|
C|-------------------------------|--------------------------------|
G|5~8~10*~12~10~8~5~8~10*~12~10~8|5~8~10*~12~10~8~4444444444444444|
C|-------------------------------|--------------------------------|

Guitar 2
D|---------------|----------------------------------------|
A|---------------|----------------------------------------|
F|12bb14~-12bb14~|12bb14~-14141414141414141414141414141414|
C|---------------|----------------------------------------|
G|---------------|----------------------------------------|
C|---------------|----------------------------------------|

Riff

Guitar 1
D|----------------------|----------------------|
A|----------------------|----------------------|
F|----------------------|----------------------|
C|----------------------|----------------------|
G|5*p0----8*p0---4-5h7p5|5*p0----8*p0---4-5h7p5|
C|—–--0000—–--3-0-------|—–--0000—–--3-0-------|
pm    ....                   ....

Guitar 2
D|----------------------|----------------------|
A|15~/------------------|1515~/----------------|
F|----------------------|----------------//----|
C|----------------------|----------------//----|
G|----------------------|----------------------|
C|----------------------|—–------—–--3-0-------|

Chorus

Guitar 1
D|--------|--------|--------|--------|
A|--------|--------|--------|--------|
F|--------|--------|--------|--------|
C|7-7533-3|3-3532-2|7-7533-3|3-3532-2|
G|5-5301-1|3-3532-2|5-5301-1|3-3532-2|
C|--------|3-3532-2|--------|3-3532-2|
(continued)(Guitar 2 enters here)
D|--------|--------|--------|--------|
A|--------|--------|--------|--------|
F|--------|--------|--------|--------|
C|7-777–-7|3-333--3|3-333–-3|2-222–-2|
G|5-555–-5|1-111–-1|3-333–-3|2-222–-2|
C|--------|--------|3-333–-3|2-222-–2|
(continued)
D|--------|--------|--------|--------------|
A|--------|--------|--------|--------------|
F|--------|--------|--------|--------------|
C|7-777–-7|3-333--3|3-333–-3|777777–-777777|
G|5-555–-5|1-111–-1|3-333–-3|777777–-777777|
C|--------|--------|3-333–-3|777777–-777777|
pm                           ......  ......

Guitar 2
D|-----------------------|--------------------------------|
A|-----------------------|--------------------------------|
F|77777771010101010101010|14141414141414141212121212121212|
C|xxxxxxx x x x x x x x x| x x x x x x x x x x x x x x x x|
G|5555555 8 8 8 8 8 8 8 8|12121212121212121010101010101010|
C|-----------------------|--------------------------------|
(continued)
D|-----------------|-----------------|------------------------------|
A|-----------------|-----------------|------------------------------|
F|7-7-79109-9-91012|10-10-10121414—–-|14141414141414--14141414141414|
C|x-x-xx xx-x-x x x| x- x- x x x x---| x x x x x x x-- x x x x x x x|
G|5-5-57 87-7-7 810| 8- 8- 8101212---|12121212121212--12121212121212|
C|-----------------|-----------------|------------------------------|
pm                                     . . . . . . .   . . . . . . .

Outro

Guitar 1
D|----------------------|----------------------|
A|----------------------|----------------------|
F|----------------------|----------------------|
C|----------------------|----------------------|
G|5*p0----8*p0---4-5h7p5|5*p0----8*p0---4-5h7p5|
C|—–--0000—–--3-0-------|—–--0000—–--3-0-------|
pm    ....                   ....
(continued)
D|----------------------|----------------------|
A|----------------------|----------------------|
F|----------------------|----------------------|
C|----------------------|----------------------|
G|5*p0----8*p0---4-5h7p5|5*p0----8*p0----------|
C|—–--0000—–--3-0-------|—–--0000—–--3-0-------|
pm    ....                   ....
comments
print report bad tab
5 comments total. Showing first comments.
0 reply
gh3tto bot wrote on May 12 2009, 01:41 pm

i believe that the first solo goes like this

D|-------------------------------------12-10-12b-10
A|-b13-10h13p10h13p10h13-13b-10------------
F|------------------------------------------------
C|------------------------------------------------
G|------------------------------------------------
C|------------------------------------------------

0 reply
Matt Doreen wrote on May 12 2009, 10:03 pm

Not exactly that, but that's a lot better than what I have. I'll put that in, and give you credit, alright?

0 reply
gh3tto bot wrote on June 2 2009, 02:05 pm

Guitar 1
D|-------------------------------|-----------------------------|
A|-------------------------------|-----------------------------|
F|-------------------------------|-----------------------------|
C|-------------------------------|-----------------------------|
G|5~8~10*~12~10~8~5~8~10*~12~10~8|5~8~10*~12~10~8~5~7~4/8~-7~5~|
C|-------------------------------|-----------------------------|

i think this goes a lil like

Guitar 1
D|-------------------------------|-----------------------------|
A|-------------------------------|-----------------------------|
F|-------------------------------|-----------------------------|
C|-------------------------------|-----------------------------|
G|5~8~10*~12~10~8~4~8~10*~12~10~8|1~8~10*~12~10~8~5~7~4/8~-7~5~|
C|-------------------------------|-----------------------------|

and this

Guitar 2
D|---------------|----------------------------------------|
A|---------------|----------------------------------------|
F|12bb14~-12bb14~|12bb14~-14141414141414141414141414141414|
C|---------------|----------------------------------------|
G|---------------|----------------------------------------|
C|---------------|----------------------------------------|

might be like

Guitar 2
D|--------------------------------------------------------------------
A|--------------------------------------------------------------------
F|12-14-14b-15-14--12--11--14--14b--15--13---12----9--12--14--14b--t14
C|--------------------------------------------------------------------
G|--------------------------------------------------------------------
C|---------------|----------------------------------------|
or something similar to that. thats not 100%, but it sounded like it would sound good with some improv/correction. just toy round wit it, you might come up with somethin better

I want to post or [tab]
guest
You may want to rate the tab now too:
select rating
Please do not post tabs as comments. Select "correction" instead!