Oops, an error
Loading. Please wait.

10 Miles Wide Bass Tab

version 3
version 3

Whole song

Interactive

2,720 views 3 this week
1 commentread comment
1 2 3 4 5
worth learning
x 2
add to favorites
launch autoscroll
font size
0
reset
guitar tuner
Tab Pro tools
  • play this tab
  • loop segment
  • change instrument
  • show fretboard
  • metronome
Autoscroll
slow
fast
+/-
esc
set tempo
stop
10 miles wide
escape the fate
http://www.youtube.com/watch?v=byT-1LGESic
tuning: drop c

Intro:
F|-----------|
C|-----------|
G|-----------|
C|-12\-------|

F|----------------------|X2
C|----------------------|
G|55-5-8-5-8-5-0--4-7-4-|
C|----------------------|

Verse:
F|----------------|X3
C|----------------|
G|55-5-8-5-8-5-8x-|
C|----------------|

Pre-Chorus:
F|-----------------|
C|----7777---------|
G|5555----44444444-|
C|-----------------|

Chorus
F|----------------------------|
C|----------------------------|
G|5-555-4-1-110---------------|
C|--------------3-333-5-5--5-5|

F|----------------------------|
C|----------------------------|
G|5-555-4-1-110---------------|
C|--------------3-333-5-------|

Verse:
F|----------------------|X2
C|----------------------|
G|55-5-8-5-8-5-0--4-7-4-|
C|----------------------|

F|----------------|X3
C|----------------|
G|55-5-8-5-8-5-8x-|
C|----------------|

Pre-Chorus:
F|-----------------|
C|----7777---------|
G|5555----44444444-|
C|-----------------|

Chorus
F|----------------------------|
C|----------------------------|
G|5-555-4-1-110---------------|
C|--------------3-333-5-5--5-5|

F|----------------------------|
C|----------------------------|
G|5-555-4-1-110---------------|
C|--------------3-333-5-5--5-5|

F|----------------------------|
C|----------------------------|
G|5-555-4-1-110---------------|
C|--------------3-333-5-5--5-5|

F|----------------------------|
C|----------------------------|
G|5-555-4-1-110---------------|
C|--------------3-333-5-------|

break
F|----------------------------------------------------------------|X2
C|----------------------------------------------------------------|
G|5555555555555555444444444444444411111111111111110000000000000000|
C|----------------------------------------------------------------|

F|-------------------------------------------------------------------|
C|-------------------------------------------------------------------|
G|5-5-5-5-5-5-5-5-4-4-4-4-4-4-4-4-111111111111111100000000333333335\-|
C|-------------------------------------------------------------------|

F|----------------|
C|----------------|
G|-55-------------|
C|----------------|

Chorus
F|----------------------------|
C|----------------------------|
G|5-555-4-1-110---------------|
C|--------------3-333-5-5--5-5|

F|----------------------------|
C|----------------------------|
G|5-555-4-1-110---------------|
C|--------------3-333-5-------|

F|----------------------------|
C|----------------------------|
G|5-555-4-1-110---------------|
C|--------------3-333-5-5--5-5|

F|----------------------------|
C|----------------------------|
G|5-555-4-1-110---------------|
C|--------------3-333-5-------|

F|----------------------------|
C|----------------------------|
G|----------------------------|
C|--35—35\--------------------|

F|----------------------|X2
C|----------------------|
G|55-5-8-5-8-5-0--4-7-4-|
C|----------------------|

F|---------------|
C|---------------|
G|55-5-8-5-8-55--|
C|---------------|


bits of this you can alter so it sounds right to you but this is how i play it... you 
also see me playing this on youtube

http://www.youtube.com/watch?v=byT-1LGESic
comments
We did not receive enough feedback on this tab! Please rate:
print report bad tab
1 2 3 4 5
1 comment total.
0 reply
synysterblack wrote on July 3 2009, 01:37 pm

this does not sound like the song at all

I want to post or [tab]
guest
You may want to rate the tab now too:
select rating
Please do not post tabs as comments. Select "correction" instead!