Oops, an error
Loading. Please wait.

10 Miles Wide Tab

version 3
version 3

Whole song

Interactive

60,640 views 12 this week
14 commentsread comments
1 2 3 4 5
accurate
x 27
add to favorites
launch autoscroll
font size
0
reset
how to read this tab
guitar tuner
Autoscroll
slow
fast
+/-
esc
set tempo
stop
Help us to improve Ultimate-Guitar.com Take our survey!
×
Author
Artist - Escape The Fate
Song - 10 Miles Wide
Album - This War Is Ours
Tabbed by Malcolm Cox

Tuning: Drop C

Notations: 
^ ~ pinch harmonic
* ~ palm mute

Note: This is best played by switching to treble as it gives certain notes a 
better sound when using pinch harmonics (or for the people who attempt them).

Intro
~~~~~
e|------------------------------|
b|------------------------------|
g|------------------------------|
d|---------3p0------------2-----|
a|--5p0--------0-3-0-0--4---4---|
e|-----0000----0-3-0-0----------|
    ^  ****^   *     *      ^
e|------------------------------|
b|------------------------------|
g|------------------------------|
d|---------3p0------------------|
a|--5p0--------0-3-0-0--0000----|
e|-----0000----0-3-0-0--0000----|
    ^  ****^   *     *  ****
e|------------------------------|
b|------------------------------|
g|------------------------------|
d|---------3p0------------2-----|
a|--5p0--------0-3-0-0--4---4---|
e|-----0000----0-3-0-0----------|
    ^  ****^   *     *      ^
e|------------------------------|
b|------------------------------|
g|------------------------------|
d|---------3p0------------2-----|
a|--5p0--------0-3-0-0--4---4~~-|
e|-----0000----0-3-0-0----------|
    ^  ****^   *     *      ^


Verse
~~~~~
e|-------------------------------------------------------------------------|
b|-------------------------------------------------------------------------|
g|-----------------------------------------------------------------66666666|
d|--0---3-0-3-0---2---0---3-0-3-0---2---0---3-0-3-0---2---33333333-66666666|
a|--0---3-0-3-0---2---0---3-0-3-0---2---0---3-0-3-0---2---33333333-44444444|
e|--0-003-0-3-0---2---0-003-0-3-0---2---0-003-0-3-0---2---33333333---------|


Chorus
~~~~~~
e|-------------------------------------------|
b|-------------------------------------------|
g|--7--7-5-3--2-3--10--10-10-----------------|
d|--7--7-5-3--2-3--10--10-10---11-11--11-11--|
a|--5--5-3-1--0-1--8---8--8----11-11--11-11--|
e|-----------------------------11-11--11-11--|

e|----------------------------------|
b|----------------------------------|
g|--7--7-5-3--2-3--10--10-10--------|
d|--7--7-5-3--2-3--10--10-10---11---|
a|--5--5-3-1--0-1--8---8--8----11---|
e|-----------------------------11---|


Fill 1
~~~~~~
e|------------------------------|
b|------------------------------|
g|------------------------------|
d|---------3p0------------2-----|
a|--5p0--------0-3-0-0--4---4---|
e|-----0000----0-3-0-0----------|
    ^  ****^   *     *      ^
(Solo plays over the second time)
e|------------------------------|
b|------------------------------|
g|------------------------------|
d|---------3p0------------2-----|
a|--5p0--------0-3-0-0--4---4---|
e|-----0000----0-3-0-0----------|
    ^  ****^   *     *      ^

Solo/Fill 1
~~~~~~~~~~~  (Solo starts where indicated before)
e|----------------------------10-12-10-13-10------------|
b|---13b15-13p10h13p10-13b15----------------------------|
g|------------------------------------------------------|
d|------------------------------------------------------|
a|------------------------------------------------------|
e|------------------------------------------------------|


Verse
~~~~~
e|-------------------------------------------------------------------------|
b|-------------------------------------------------------------------------|
g|-----------------------------------------------------------------66666666|
d|--0---3-0-3-0---2---0---3-0-3-0---2---0---3-0-3-0---2---33333333-66666666|
a|--0---3-0-3-0---2---0---3-0-3-0---2---0---3-0-3-0---2---33333333-44444444|
e|--0-003-0-3-0---2---0-003-0-3-0---2---0-003-0-3-0---2---33333333---------|


Chorus
~~~~~~
e|-------------------------------------------|
b|-------------------------------------------|
g|--7--7-5-3--2-3--10--10-10-----------------|
d|--7--7-5-3--2-3--10--10-10---11-11--11-11--|
a|--5--5-3-1--0-1--8---8--8----11-11--11-11--|
e|-----------------------------11-11--11-11--|

e|-------------------------------------------|
b|-------------------------------------------|
g|--7--7-5-3--2-3--10--10-10-----------------|
d|--7--7-5-3--2-3--10--10-10---11-11--11-11--|
a|--5--5-3-1--0-1--8---8--8----11-11--11-11--|
e|-----------------------------11-11--11-11--|

e|-------------------------------------------|
b|-------------------------------------------|
g|--7--7-5-3--2-3--10--10-10-----------------|
d|--7--7-5-3--2-3--10--10-10---11-11--11-11--|
a|--5--5-3-1--0-1--8---8--8----11-11--11-11--|
e|-----------------------------11-11--11-11--|

e|----------------------------------|
b|----------------------------------|
g|--7--7-5-3--2-3--10--10-10--------|
d|--7--7-5-3--2-3--10--10-10---11---|
a|--5--5-3-1--0-1--8---8--8----11---|
e|-----------------------------11---|


Bridge
~~~~~~
e|----------------------------------------------------|
b|----------------------------------------------------|
g|----------------------------------------------------|
d|----3-5-5s7-5---3-5-5s7---3-5s7-5-3-----------------|
a|--5-----------4---------1-----------0-7-4-7s8-7-0---|
e|----------------------------------------------------|
        ^           ^         ^
e|----------------------------------------------------|
b|----------------------------------------------------|
g|----------------------------------------------------|
d|----3-5-5s7-5---3-5-5s7---3-5s7-5-3-----------------|
a|--5-----------4---------1-----------0-7-4-7s8-7-0---|
e|----------------------------------------------------|
        ^           ^         ^
e|----------------------------------------------------|
b|----------------------------------------------------|
g|----------------------------------------------------|
d|----3-5-5s7-5---3-5-5s7---3-5s7-5-3-----------------|
a|--5-----------4---------1-----------0-7-4-7s8-7-0---|
e|----------------------------------------------------|
        ^           ^         ^

Pre-Chorus:
e|------------------------------|
b|------------------------------|
g|------------------------------|
d|---------3p0------------2-----|
a|--5p0--------0-3-0-0--4---4---|
e|-----0000----0-3-0-0----------|
    ^  ****^   *     *      ^
e|------------------------------|
b|------------------------------|
g|------------------------------|
d|---------3p0------------2-----|
a|--5p0--------0-3-0-0--4---4---|
e|-----0000----0-3-0-0----------|
    ^  ****^   *     *      ^


Chorus:
e|-------------------------------------------|
b|-------------------------------------------|
g|--7--7-5-3--2-3--10--10-10-----------------|
d|--7--7-5-3--2-3--10--10-10---11-11--11-11--|
a|--5--5-3-1--0-1--8---8--8----11-11--11-11--|
e|-----------------------------11-11--11-11--|

e|-------------------------------------------|
b|-------------------------------------------|
g|--7--7-5-3--2-3--10--10-10-----------------|
d|--7--7-5-3--2-3--10--10-10---11-11--11-11--|
a|--5--5-3-1--0-1--8---8--8----11-11--11-11--|
e|-----------------------------11-11--11-11--|

e|-------------------------------------------|
b|-------------------------------------------|
g|--7--7-5-3--2-3--10--10-10-----------------|
d|--7--7-5-3--2-3--10--10-10---11-11--11-11--|
a|--5--5-3-1--0-1--8---8--8----11-11--11-11--|
e|-----------------------------11-11--11-11--|

e|---------------------------------------------------------------|
b|---------------------------------------------------------------|
g|--7--7-5-3--2-3--10--10-10-------------------------------------|
d|--7--7-5-3--2-3--10--10-10---11--11-11--11-11--11--11-11--11-11|
a|--5--5-3-1--0-1--8---8--8----11--11-11--11-11--11--11-11--11-11|
e|-----------------------------11--11-11--11-11--11--11-11--11-11|


Outro:
e|------------------------------|
b|------------------------------|
g|------------------------------|
d|---------3p0------------2-----|
a|--5p0--------0-3-0-0--4---4---|
e|-----0000----0-3-0-0----------|
    ^  ****^   *     *      ^
e|------------------------------|
b|------------------------------|
g|------------------------------|
d|---------3p0------------2-----|
a|--5p0--------0-3-0-0--4---4---|
e|-----0000----0-3-0-0----------|
    ^  ****^   *     *      ^
e|------------------------------|
b|------------------------------|
g|------------------------------|
d|---------3p0------------2-----|
a|--5p0--------0-3-0-0--4---4---|
e|-----0000----0-3-0-0----------|
    ^  ****^   *     *      ^
e|-------------------------|
b|-------------------------|
g|-------------------------|
d|---------3p0-0-3--0------|
a|--5p0--------0-3--0------|
e|-----0000----0-3--0------|
    ^  ****^             


Thanks! Leave comments and rate XD

    
Suggest correction
comments
print report bad tab
14 comments total. Showing first comments.
-2 reply
vtolegend 10 wrote on June 18 2009, 10:43 am

dude your tab is perfect and all, but its supposed to be in DROP C

+1 reply
Emo_Blood 10 wrote on June 26 2009, 07:14 pm

dude it is drop C it just says standard on the sides.
play it in drop C and its right

0 reply
malcolmcox 71 wrote on June 27 2009, 07:51 am

yeah. i guess thats why no one reads the top, where it drop C for the tuning. and as for it on the side thats just the actual name of the strings.

guest
You may want to rate the tab now too:
select rating
Please do not post tabs as comments. Select "correction" instead!