Oops, an error
Loading. Please wait.

10 Miles Wide Tab

version 5
version 5

Whole song

Interactive

1,914 views 3 this week
no commentswrite comment
1 2 3 4 5
please rate
add to favorites
launch autoscroll
font size
0
reset
how to read this tab
guitar tuner
Tab Pro tools
  • play this tab
  • loop segment
  • change instrument
  • show fretboard
  • metronome
×
Best way to learn
"10 Miles Wide"
Autoscroll
slow
fast
+/-
esc
set tempo
stop
Contributor
Nobody on this site had a very accurate tab on this song so I thought I
 would tab it.  I'm pretty sure this is 99% percent right,well on the
lead but as for the rhythm I really couldn't hear it very much, that's
why I was constantly putting Lead and Rhythm are playing the same thing
because I just couldn't hear it... Anyways it sounds right to me.  If you
 think that it doesn't please pm me or just comment on it.  I really hope
 everyone enjoys playing this song and please rate and comment!

Tablature Legend
----------------
*  =Pinch Harmonic
(n)=Natural Harmonic
^^ =Full Bend
^  =Half Bend
.  =Palm mute
h  =Hammer on
p  =Pull Off
~  =Vibrato
/  =Slide To
\  =Slide Down


_____________________________________________________________________________

{Intro}
(Distortion)
[Lead-Rhythm)

d[---------------------------------------Rhythm comes in with lead------------|
a[---------------------------------------|------------------------------------|
f[---------------------------------------|------------------------------------|
c[------0-0-0-0-3*p0-0-0-3-0-0-0---2-----v-----0-0-0-3*p0-0-0-3-0-0-0-x-x-x-x-|
g[-5*p0-0-0-0-0------0-0-3-0-0-0-4*--4*^--5*p0-0-0-0------0-0-3-0-0-0-x-x-x-x-|
C[------0-0-0-0------0-0-3-0-0-0---------------0-0-0------0-0-3-0-0-0-x-x-x-x-|
        . . . .      . .   . . .               . . .      . .   . . .

d[---------------------------------------|
a[---------------------------------------|
f[---------------------------------------|
c[------0-0-0-0-3*p0-0-0-3-0-0-0---2-----|
g[-5*p0-0-0-0-0------0-0-3-0-0-0-4*--4*^-|
C[------0-0-0-0------0-0-3-0-0-0---------| x2
        . . . .      . .   . . .

{Verse}
(Distortion)
[Lead-Rhythm Both Play the Same Thing]

d[----------------------------|
a[----------------------------|
f[----------------------------|
c[-0-0-0-3-0-0-3-2------------|
g[-0-0-0-3-0-0-3-2------------|
c[-0-0-0-3-0-0-3-2------------| x3
   . . . . . . . .

{Pre-Chorus}
(Distortion)
[Really I left this blank because you could really pull off a cool
solo fill to impress everyone]
d[-------------------------------|
a[-------------------------------|
f[-------------------------------|
c[-0-0-0-0-0-0-0-0-0-0-0-0-0-0---|
g[-0-0-0-0-0-0-0-0-0-0-0-0-0-0---|
c[-0-0-0-0-0-0-0-0-0-0-0-0-0-0---|
   . . . . . . .

{Chorus}
(Distortion)
[Lead-Rhythm Both Play the Same Thing]

d[----------------------------------------------------------------|
a[----------------------------------------------------------------|
f[-7-7-/5-/3-3-3-3------------------------7-7-/5-/3-3-3-3-3-------|
c[-x-x--x--x-x-x-x-3-3-3-3-/11-11--11-11--x-x--x--x-3-3-3-3-/11---|
g[-5-5-/3-/1-1-1-1-3-3-3-3-/11-11--11-11--5-5-/3-/1-3-3-3-3-/11---|
c[-----------------3-3-3-3-/11-11--11-11------------3-3-3-3-/11---|

{Pre-Verse}
(Distortion)
[Lead[Top]Rhythm[Bottom]

d[----------------------------------12p10-13-10---|
a[-13^^--10h13p10h13p10h13p10h13-15---------------|
f[------------------------------------------------|
c[------------------------------------------------|
g[------------------------------------------------|
c[------------------------------------------------|

d[---------------------------------------|
a[---------------------------------------|
f[---------------------------------------|
c[------0-0-0-0-3*p0-0-0-3-0-0-0---2-----|
g[-5*p0-0-0-0-0------0-0-3-0-0-0-4*--4*^-|
C[------0-0-0-0------0-0-3-0-0-0---------| x2
        . . . .      . .   . . .

{Verse}
(Distortion)
[Lead-Rhythm Both Play the Same Thing]

d[----------------------------|
a[----------------------------|
f[----------------------------|
c[-0-0-0-3-0-0-3-2------------|
g[-0-0-0-3-0-0-3-2------------|
c[-0-0-0-3-0-0-3-2------------| x3
   . . . . . . . .


{Pre-Chorus}
(Distortion)
[Lead]

d[-----------------------12p10h13---|
a[----------------------------------|
f[-8-8-8-8--14-14-14-14-------------|
c[-x-x-x-x--x--x--x--x--------------|
g[-6-6-6-6--12-12-12-12-------------|
c[----------------------------------|

{Chorus}
(Distortion)
[Lead-Rhythm Both Play the Same Thing]

d[----------------------------------------------------------------|
a[----------------------------------------------------------------|
f[-7-7-/5-/3-3-3-3------------------------7-7-/5-/3-3-3-3-3-------|
c[-x-x--x--x-x-x-x-3-3-3-3-/11-11--11-11--x-x--x--x-3-3-3-3-/11---|
g[-5-5-/3-/1-1-1-1-3-3-3-3-/11-11--11-11--5-5-/3-/1-3-3-3-3-/11---|
c[-----------------3-3-3-3-/11-11--11-11------------3-3-3-3-/11---|

{Solo}
(Distortion)
[Lead]

d[------------------------------------------------------------------------|
a[------------------------------------------------------------------------|
f[------------------------------------------------------------------------|
c[--3-5*-7*-5-3---3-5*-7*-5-3--3-5*-7*-5-3-----------------3-5*-7*-5-3----|
g[-5------------4-------------1------------0-7p4-7-5-4----5------------4--|
c[------------------------------------------------------------------------|

d[----------------------------------------------|
a[----------------------------------------------|
f[---------------------------------12^^-12*-10--|
c[-3-5*-7*-5-3--3-5*-7*-5-3---------------------|
g[-------------1------------0-/7p4--------------|
c[----------------------------------------------|

d[------------------------------------------------------------------|
a[------------------------------------------------------------------|
f[-777-/101010/121212/141414-1212-1010--666-/101010/121212/141414-12|
c[-xxx-/x-x-x-/x-x-x-/x-x-x--x-x--x-x---xxx-/x-x-x-/x-x-x-/x-x-x--x-|
g[-555-/8-8-8-/101010/121212-1010-8-8---444-/8-8-8-/101010/121212-10|
c[------------------------------------------------------------------|

d[-----------------------------------------------|
a[-----------------------------------------------|
f[-12-1010--333-/101010/121212/141414-12---------|
c[-x--x-x---xxx-/x-x-x-/x-x-x-/x-x-x--x----------|
g[-10-8-8---111-/8-8-8-/101010/121212-10-x16-----|
c[-----------------------------------------------|

{Pre-Chorus}
(Distortion(Rhythm's volume turned down)
[Lead[Top]Rhythm[Bottom]

d[-10~\----------------------------10-10~\--|
a[------------------------------------------|
f[------------------------------------------|
c[------------------------------------------|
g[------------------------------------------|
c[------------------------------------------|

d[------------------------------------------|
a[------------------------------------------|
f[------------------------------------------|
c[------0-0-0-0-3*p0-0-0-3-0-0-0---2--------|
g[-5*p0-0-0-0-0------0-0-3-0-0-0-4*--4*^----|
C[------0-0-0-0------0-0-3-0-0-0------------| x2
   .  . . . . . . . . . . . . . . . . . .

{Chorus}
(Distortion)
[Lead-Rhythm Both Play the Same Thing]

d[----------------------------------------------------------------|
a[----------------------------------------------------------------|
f[-7-7-/5-/3-3-3-3------------------------7-7-/5-/3-3-3-3-3-------|
c[-x-x--x--x-x-x-x-3-3-3-3-/11-11--11-11--x-x--x--x-3-3-3-3-/11---|
g[-5-5-/3-/1-1-1-1-3-3-3-3-/11-11--11-11--5-5-/3-/1-3-3-3-3-/11---|
c[-----------------3-3-3-3-/11-11--11-11------------3-3-3-3-/11---|

{Outro with Buck Cherry's Josh Todd)
(Distortion)
[Lead-Rhythm Both Play the Same Thing]

d[----------------------------------------------------------------|
a[----------------------------------------------------------------|
f[-14----15----14----12-----7777-/10\9-9999-/12\10-101010-12-15---|
c[-x-----x-----x-----x------xxxx-/x-\x-xxxx-/x-\x--x-x-x--x--x----|
g[-12-x8-13-x8-12-x8-10-x8--5555-/8-\7-7777-/10\8--8-8-8--10-13---|
c[----------------------------------------------------------------|

d[----------------------------------------------------|
a[----------------------------------------------------|
f[----------------------------------------------------|
c[-----0-0-----0-0-----0-0----------------------------|
g[-----0-0-----0-0-----0-0----------------------------|
c[-000-0-0-000-0-0-000-0-0----------------------------|

{Outro Verse}
(Distortion)
[Lead and Rhythm Both Play the Same thing]

d[----------------------------------------------------------------------|
a[----------------------------------------------------------------------|
f[----------------------------------------------------------------------|
c[------0-0-0-0-3*p0-0-0-3-0-0-0---2-----------0-0-0-0-3*p0-0-0-3-0\----|
g[-5*p0-0-0-0-0------0-0-3-0-0-0-4*--4*^--5*p0-0-0-0-0------0-0-3-0\----|
C[------0-0-0-0------0-0-3-0-0-0---------------0-0-0-0------0-0-3-0\----|
        . . . .      . .   . . .               . . . .      . .

Thank You!  Enjoy!  Tabbed by CaseyJ2424
comments
We did not receive enough feedback on this tab! Please rate:
print report bad tab
1 2 3 4 5
I want to post or [tab]
guest
You may want to rate the tab now too:
select rating
Please do not post tabs as comments. Select "correction" instead!