Oops, an error
Loading. Please wait.

As Youre Falling Down Bass Tab

version 1
version 1

Whole song

Interactive

9,457 views 1 this week
5 commentsread comments
1 2 3 4 5
x 4
add to favorites
launch autoscroll
font size
0
reset
guitar tuner
Autoscroll
slow
fast
+/-
esc
set tempo
stop
Help us to improve Ultimate-Guitar.com Take our survey!
×
Author
Difficulty
Tuning
novice
D A D G B E
Escape The Fate
As Your Falling Down
There's No Sympathy For The Dead
Drop D Tuning


Intro
|--------------------------------------------------------------------|
|--------------------------------------------------------------------|
|------------------------------------------------------------------4~|
|3-3333-3-3333-4-1-3-3333-3-3333-4~3-3333-3-3333-4-1-3-3333-3-3333---|

Verse 1
|--------------------------------------|
|--------------------------------------|
|------------------6666----------------| x2
|10101010---6666----------8~6~5~3~5~3~-|

Verse 2
|------------------------------------------------------------------|
|------------------------------------------------------------------|
|-3-333333333333----------------6-666666666666---------------------|x2
|----------------6-666666666666-----------------8-8888888-9-9999999|
                                               |< First Time Only >|

Pre-Chorus
|-------------|
|-------------|
|-------------|
|8~6~5~3~5~3~-|

Chorus
|------------------------------------------|
|------------------------------------------|
|-----------------------3-3-3333-----------| x2
|-1-1-1111---5-5-5555--------------6-6-6666|

Verse 1 & 2

Pre-Chorus

Chorus

Bridge 1 (Guitars Only)

Bridge 2 Bass comes in at 2:00
|------------------------------------------|
|------------------------------------------|
|-----------------------3-3-3333-----------| x2
|-1-1-1111---5-5-5555--------------6-6-6666|

Verse 1

Chorus x4

Outro
|--------------------------------------|
|--------------------------------------|
|3~~~---3---3~~~---3-------------------|
|------------------------10~~~\--------|
Suggest correction
comments
print report bad tab
5 comments total. Showing first comments.
+1 reply
anticsbasslover 10 Oct 25, 2006 01:42 AM

beginning is wrong
it should be

D |--33--3-3-33--3-3-4-1--33--3-3-33--3-3-4

D |--33--3-3-33--3-3-4-1--33--3-3-33-33-3-4

0 reply
jammyrat 82 Mar 29, 2008 05:42 PM

Great Tab
Well Done (Y)

0 reply
maxgreenfan 35 Feb 25, 2009 11:30 AM

tuning???

guest
You may want to rate the tab now too:
select rating
Wanna post a correction for this tab? Suggest correction