Oops, an error
Loading. Please wait.

As Youre Falling Down Tab

version 2
version 2

Whole song

Interactive

17,055 views 3 this week
4 commentsread comments
1 2 3 4 5
accurate
x 7
add to favorites
launch autoscroll
font size
0
reset
how to read this tab
guitar tuner
Autoscroll
slow
fast
+/-
esc
set tempo
stop
Help us to improve Ultimate-Guitar.com Take our survey!
×
Author
Difficulty
Tuning
novice
D A D G B E
I re-did this tab with Both Guitars this time please don't copy this tab and take credit 
it okay thank you. & Look at my other tabs "Situations""Not Good Enough for The Truth 
Cliche" and "Chariot Of Fire" :)

Song:As Youre Falling Down
Band:Escape The Fate
Album:There's No Sympathy For The Dead
Tabbed By: Mitchel Craig
Tuning: EBGDAD   Drop D

.= Palm Mute
H= Hammeron
P= Pull off
/: Slide up Neck
\: Slide Down Neck
~= Let Ring
x= Mute

Intro
|--------------------------------------------------------------------|
|--------------------------------------------------------------------|
|--------------------------------------------------------------------|
|--------------------------------------------------------------------|
|-3~-3333-3~-3333-4-1-3~-3333-3~-3333-4~-3~-3333-3~-3333-4-1-3~-3333-|
|-3~-3333-3~-3333-4-1-3~-3333-3~-3333-4~-3~-3333-3~-3333-4-1-3~-3333-|

|-------------|                Intro Is Both Guitars
|-------------|
|---------6~--|
|---------x---|
|-3~-3333-4~--|
|-3~-3333-----|

Verse   Guitar 1
|-----------------------------------------|
|-----------------------------------------|
|-----------------------------------------|
|--------------------8888-----------------| Do This 2 Times
|-10101010---6666\---6666---8~6~5~3~5~3~--|
|-10101010---6666\----------8~6~5~3~5~3~--|


|----------------------------------------------------------------------|
|----------------------------------------------------------------------|
|----------------------------------------------------------------------|
|-5~------------------------------------8~-----------------------------|
|-3~3333333333333333-6~-----------------6~6666666666666666-8~----------|
|--------------------6~6666666666666666--------------------8~88888888--|
    ................   ................   ................   ........
|-------------|
|-------------|
|-------------|    Do these palm muting parts two times Guitar 2 comes in
|-------------|     the second Time you play it
|-9~----------|
|-9~99999999--|
    ........

Guitar 2
|------------------------------|--------------------------|
|-161616-151515-16-15-13131313-|-----13----13-----13--13--|
|-x-x-x--x-x-x--x--x--x-x-x-x--|-1212--1212---1212--12----|
|-131313-121212-13-12-10101010-|--------------------------|
|------------------------------|--------------------------|
|------------------------------|--------------------------|
                                 .  .  .  .    . .   . 12's Palm Muted

Breakdown To Chorus
Guitar 1
|---------------|
|---------------|
|---------------|
|---------------|
|-8~6~5~3~5~3~--|
|-8~6~5~3~5~3~--|

Guitar 2
|---------------|
|-9~8~6~4~6~4~--|
|---------------|
|---------------|
|---------------|
|---------------|

Chorus
Guitar 1
|--------------------------------|
|--------------------------------|
|-----------------5~~55----------|
|-1~~1-1--5~~5-5--5~~55--6~~6-6--|
|-1~~1-1--5~~5-5--3~~33--6~~6-6--|
|-1~~1-1--5~~5-5---------6~~6-6--|

Guitar 2
|----------------------------------------------------------|
|-8~8888-8~8888-6~6666-6~6666-4~4444-4~4444-6~6666-9~9999--|
|-x-xxxx-x-xxxx-x-xxxx-x-xxxx-x-xxxx-x-xxxx-x-xxxx-x-xxxx--|
|-5~5555-5~5555-3~3333-3~3333-1~1111-1~1111-3~3333-6~6666--|
|----------------------------------------------------------|
|----------------------------------------------------------|

Verse   Guitar 1
|-----------------------------------------|
|-----------------------------------------|
|-----------------------------------------|
|--------------------8888-----------------| Do This 2 Times
|-10101010---6666\---6666---8~6~5~3~5~3~--|
|-10101010---6666\----------8~6~5~3~5~3~--|


|----------------------------------------------------------------------|
|----------------------------------------------------------------------|
|----------------------------------------------------------------------|
|-5~------------------------------------8~-----------------------------|
|-3~3333333333333333-6~-----------------6~6666666666666666-8~----------|
|--------------------6~6666666666666666--------------------8~88888888--|
    ................   ................   ................   ........
|-------------|
|-------------|
|-------------|    Do these palm muting parts two times Guitar 2 comes in
|-------------|     the second Time you play it
|-9~----------|
|-9~99999999--|
    ........

Guitar 2
|------------------------------|--------------------------|
|-161616-151515-16-15-13131313-|-----13----13-----13--13--|
|-x-x-x--x-x-x--x--x--x-x-x-x--|-1212--1212---1212--12----|
|-131313-121212-13-12-10101010-|--------------------------|
|------------------------------|--------------------------|
|------------------------------|--------------------------|
                                 .  .  .  .    . .   . 12's Palm Muted

Breakdown To Chorus
Guitar 1
|---------------|
|---------------|
|---------------|
|---------------|
|-8~6~5~3~5~3~--|
|-8~6~5~3~5~3~--|

Guitar 2
|---------------|
|-9~8~6~4~6~4~--|
|---------------|
|---------------|
|---------------|
|---------------|

Chorus
Guitar 1
|--------------------------------|
|--------------------------------|
|-----------------5~~55----------|
|-1~~1-1--5~~5-5--5~~55--6~~6-6--|
|-1~~1-1--5~~5-5--3~~33--6~~6-6--|
|-1~~1-1--5~~5-5---------6~~6-6--|

Guitar 2
|----------------------------------------------------------|
|-8~8888-8~8888-6~6666-6~6666-4~4444-4~4444-6~6666-9~9999--|
|-x-xxxx-x-xxxx-x-xxxx-x-xxxx-x-xxxx-x-xxxx-x-xxxx-x-xxxx--|
|-5~5555-5~5555-3~3333-3~3333-1~1111-1~1111-3~3333-6~6666--|
|----------------------------------------------------------|
|----------------------------------------------------------|

Bridge
Guitar 1
|------------------| |----------|
|------------------| |----------|
|------------------| |----------|Strum these notes This part was hard to get
|-5~~~-5--5~~~-5---| |-5-1-5-6--|I had to use enhancements on this thing Lol
|-3~~~-3--3~~~-3---| |-3-1-5-6--|and turn of the bass and stuff and just have
|------------------| |---1-5-6--|two guitars playing

Guitar 2
|--------------------------|
|-8p0-8h9-0-6h8-0-3h4-3\1--|
|--------------------------|
|--------------------------|8x
|--------------------------|
|--------------------------|

|-----------------------------------|
|-13----11----13----11----13--13----|
|---1212--1212--1212--1212--12--12--|
|-----------------------------------|4x
|-----------------------------------|
|-----------------------------------|
     . .  . .   . .   . .    .  .   12's Palm Muted
Verse   Guitar 1
|-----------------------------------------|
|-----------------------------------------|
|-----------------------------------------|
|--------------------8888-----------------| Do This 2 Times
|-10101010---6666\---6666---8~6~5~3~5~3~--|
|-10101010---6666\----------8~6~5~3~5~3~--|


Chorus
Guitar 1
|--------------------------------|
|--------------------------------|
|-----------------5~~55----------|
|-1~~1-1--5~~5-5--5~~55--6~~6-6--|
|-1~~1-1--5~~5-5--3~~33--6~~6-6--|
|-1~~1-1--5~~5-5---------6~~6-6--|

Guitar 2
|----------------------------------------------------------|
|-8~8888-8~8888-6~6666-6~6666-4~4444-4~4444-6~6666-9~9999--|
|-x-xxxx-x-xxxx-x-xxxx-x-xxxx-x-xxxx-x-xxxx-x-xxxx-x-xxxx--|
|-5~5555-5~5555-3~3333-3~3333-1~1111-1~1111-3~3333-6~6666--|
|----------------------------------------------------------|
|----------------------------------------------------------|


Guitar 1
|------------------|
|------------------|
|------------------|
|-5~~~-5--5~~~-5---|
|-3~~~-3--3~~~-3---|
|------------------|

Guitar 2
|--------------------------|
|-8p0-8h9-0-6h8-0-3h4-3\1--|
|--------------------------|
|--------------------------|4x
|--------------------------|
|--------------------------|

Guitar 1 and 2
|-----------|
|-----------|
|-----------|
|-10~~\\\\--|
|-10~~\\\\--|
|-10~~\\\\--|
Suggest correction
comments
print report bad tab
4 comments total. Showing first comments.
-1 reply
Bloodforsaken 40 wrote on November 19 2007, 06:28 am

nice tab! do u mind if i convert it to a power tab?

-2 reply
Fischer92rox 10 wrote on January 6 2008, 07:47 pm

Everything sounds right. But....

Its slopppy.

+1 reply
rockerep 31 wrote on January 28 2009, 05:11 pm

its played in drop c but its good

guest
You may want to rate the tab now too:
select rating
Wanna post a correction for this tab? Suggest correction