Oops, an error
Loading. Please wait.

As Youre Falling Down Tab

version 4
version 4

Whole song

Interactive

2,878 views 1 this week
no commentswrite comment
1 2 3 4 5
excellent!
x 3
add to favorites
launch autoscroll
font size
0
reset
how to read this tab
guitar tuner
Tab Pro tools
  • play this tab
  • loop segment
  • change instrument
  • show fretboard
  • metronome
×
Best way to learn
"As Youre Falling Down"
Autoscroll
slow
fast
+/-
esc
set tempo
stop
Contributor
Difficulty
Tuning
novice
C G C F A D
As You’re Falling Down  -  3:27
Escape The Fate
There’s No Sympathy For The Dead, EP

GTR1-CGCFAD
GTR2-CGCFAD

Intro
Both
|------------------------|----------------------|------------------------|   
|------------------------|----------------------|------------------------|   
|------------------------|----------------------|------------------------|   
|-5--5-5--5-5-5--5-5-6-3-|-5--5-5--5-5-5--5-5-6-|-5--5-5--5-5-5--5-5-6-3-|   
|-5--5-5--5-5-5--5-5-6-3-|-5--5-5--5-5-5--5-5-6-|-5--5-5--5-5-5--5-5-6-3-| 
|-5--5-5--5-5-5--5-5-6-3-|-5--5-5--5-5-5--5-5-6-|-5--5-5--5-5-5--5-5-6-3-|   

|----------------------|   
|----------------------|   
|--------------------8-|   
|-5--5-5--5-5-5--5-5---|   
|-5--5-5--5-5-5--5-5-6-| 
|-5--5-5--5-5-5--5-5---|   

Verse
Both
|-------------|---------|-------------|------------------------|   
|-------------|---------|-------------|------------------------|   
|-------------|---------|-10-10-10-10-|------------------------|   
|-12-12-12-12-|-8-8-8-8-|-10-10-10-10-|-10---8---7---5---7---5-|   
|-12-12-12-12-|-8-8-8-8-|-8--8--8--8--|-10---8---7---5---7---5-| x2
|-12-12-12-12-|-8-8-8-8-|-------------|-10---8---7---5---7---5-|   

Pre Chorus
GTR1
|--------------------------------------------|   
|--------------------------------------------|   
|-------------------10-----------------------|   
|-12--------8-------10-10-----10-------11----|   
|-12-12-x14-8-8-x14-8--8--x14-10-10-x6-11-x6-| 
|-12-12-----8-8---------------10-10----11----|   
     .        .        .
|-----------------------------|   
|-----------------------------|   
|-------------------10--------|   
|-12--------8-------10-10-----|   
|-12-12-x14-8-8-x14-8--8--x14-| 
|-12-12-----8-8---------------|   
     .        .        .
|---------------------|   
|-12--10--9-----9--10-|   
|-----------12--------|   
|---------------------|   
|---------------------| 
|---------------------|   

GTR2 - Come In Second Part
|-0-0-13-0-12-0-0-13-0-12-0-0-10-10-10-10--|   
|------------------------------------------|   
|------------------------------------------|   
|------------------------------------------|   
|------------------------------------------| x2
|------------------------------------------|   

|-0-0-8-0-8-0-0-8-0-8-0-0-8-0-8-|   
|-------------------------------|   
|-------------------------------|   
|-------------------------------|   
|-------------------------------| 
|-------------------------------|   

|----------------------|   
|-11--10--8------8--10-|   
|------------10--------|   
|----------------------|   
|----------------------| 
|----------------------|   

Chorus
GTR1
|-------------------------|   
|-------------------------|   
|-14----12----10----12----|   
|---x16---x16---x16---x16-|   
|-12----10----8-----10----| 
|-------------------------|   

|-----------------------------|   
|-----------------------------|   
|-----------------------------|   
|-3----7----12----11----10----|   
|-3-x6-7-x6-12-x6-11-x4-10-x2-| 
|-3----7----12----11----10----|   

Repeat Verse
Repeat Pre Chorus
Repeat Chorus
Bridge
Part 1
GTR1
|----------------------------------------------|   
|----------------------------------------------|   
|-----14-0-14-15-0-12-14-0-10-0-9-0-10-9-10----|   
|-0-0---------------------------------------10-|   
|-0-0------------------------------------------| x4
|-0-0------------------------------------------|   

GTR2
|----------------------------------------------|   
|----------------------------------------------|   
|----------------------------------------------|   
|-0-0------------------------------------------|   
|-0-0------------------------------------------| x4
|-0-0------------------------------------------|   

Part 2
GTR1
|----------------------------------------------|   
|----------------------------------------------|   
|-0-0-14-0-14-15-0-12-14-0-10-0-9-0-10-9-10----|   
|-------------------------------------------10-|   
|----------------------------------------------| x4
|----------------------------------------------|   

GTR2
|---------------------------------|   
|---------------------------------|   
|--------------10-----------------|   
|-12-----8-----10-----10----11----|   
|-12-x16-8-x16-8--x16-10-x8-11-x8-| 
|-12-----8------------10----11----|   

Part 3
GTR1
|---------------------------------------------|   
|-15p10p0-13p10p0-15p10p0-13p10p0-15p10-15p10-|   
|---------------------------------------------|   
|---------------------------------------------|   
|---------------------------------------------| x4
|---------------------------------------------|   

GTR2
|---------------------------------|   
|---------------------------------|   
|--------------10-----------------|   
|-12-----8-----10-----10----11----|   
|-12-x16-8-x16-8--x16-10-x8-11-x8-| 
|-12-----8------------10----11----|   

Repeat Verse
Repeat Chorus x2
Outro
GTR1
|----------------------------------------------|   
|----------------------------------------------|   
|-----14-0-14-15-0-12-14-0-10-0-9-0-10-9-10----|   
|-0-0---------------------------------------10-|   
|-0-0------------------------------------------| x4
|-0-0------------------------------------------|   

GTR2
|----------------------------------------------|   
|----------------------------------------------|   
|----------------------------------------------|   
|-0-0------------------------------------------|   
|-0-0------------------------------------------| x4
|-0-0------------------------------------------|   

End On
|--------|   
|--------|   
|--------|   
|-12-12\-|   
|-12-12\-| 
|-12-12\-|   
comments
We did not receive enough feedback on this tab! Please rate:
print report bad tab
1 2 3 4 5
I want to post or [tab]
guest
You may want to rate the tab now too:
select rating
Please do not post tabs as comments. Select "correction" instead!