Oops, an error
Loading. Please wait.

As Youre Falling Down Tab

version 5
version 5

Whole song

Interactive

546 views 1 this week
no commentswrite comment
1 2 3 4 5
please rate
add to favorites
launch autoscroll
font size
0
reset
how to read this tab
guitar tuner
Autoscroll
slow
fast
+/-
esc
set tempo
stop
Help us to improve Ultimate-Guitar.com Take our survey!
×
Author
Difficulty
intermediate
As You’re Falling Down – Escape The Fate
Tabbed By: Pauz Prima


---(The STANDARD VERSION)---

INTRO:

Guitar 1 & 2:
|---------------------------------|---------------------------------|
|---------------------------------|---------------------------------|
|---------------------------------|------------------------------6~-|
|-3-33333-333-4-1--3-33333-333-4~-|-3-33333-333-4-1--3-33333-333-x~-|
|-3-33333-333-4-1--3-33333-333-4~-|-3-33333-333-4-1--3-33333-333-4~-|
|-1-11111-111-2----1-11111-111-2~-|-1-11111-111-2----1-11111-111----|


VERSE1:

Guitar 1 & 2:
|-------|-------|-------|-------------|
|-------|-------|-------|-------------|
|-------|-------|-------|-------------| 2x
|-5555--|-6666--|-8888--|-8-6-5-3-5-3-|
|-3333--|-6666--|-6666--|-8-6-5-3-5-3-|
|-------|-4444--|-------|-6-4-3-1-3-1-|


PRE-CHORUS1:

Guitar 1 & 2:
|----------------------------------------------------------------------|
|----------------------------------------------------------------------|
|-5---------------------------------8----------------------------------|
|-5-55555555555555-6----------------8-88888888888888-8--------9--------|
|-3-33333333333333-6-66666666666666-6-66666666666666-8-888888-9-999999-|
|------------------4-44444444444444------------------6-666666-7-777777-|

Guitar 1:
|----------------------------------------------------------------|
|----------------------------------------------------6-4-3-1-3-4-|
|-5---------------------------------8----------------------------|
|-5-55555555555555-6----------------8-88888888888888-------------|
|-3-33333333333333-6-66666666666666-6-66666666666666-------------|
|------------------4-44444444444444------------------------------|

Guitar 2:
  (--eleven & ten--)
|---11--10---11--10---8888-|---11--10---11--10---8888-|---6--6---6--6---6--6---------------|
|--------------------------|--------------------------|------------------------9-8-6-4-6-8-|
|-77---7---77---7---77-----|-77---7---77---7---77-----|-77--7--77--7--77--7--7-------------|
|--------------------------|--------------------------|------------------------------------|
|--------------------------|--------------------------|------------------------------------|
|--------------------------|--------------------------|------------------------------------|


CHORUS1:

Guitar 1:
|-----------------------------------------|
|-----------------------------------------|
|-----------------------------------------|
|-8-8888888-5-5555555-5-5555555-9-9999999-| 2x
|-6-6666666-5-5555555-3-3333333-9-9999999-|
|-----------3-3333333-----------7-7777777-|

Guitar 2:
|-----------------------------------------|
|-8-8888888-6-6666666-----------6-6666666-|
|-x-xxxxxxx-x-xxxxxxx-8-8888888-x-xxxxxxx-| 2x
|-5-5555555-3-3333333-x-xxxxxxx-3-3333333-|
|---------------------6-6666666-----------|
|-----------------------------------------|


VERSE2:

Guitar 1 & 2:
|-------|-------|-------|-------------|
|-------|-------|-------|-------------|
|-------|-------|-------|-------------| 2x
|-5555--|-6666--|-8888--|-8-6-5-3-5-3-|
|-3333--|-6666--|-6666--|-8-6-5-3-5-3-|
|-------|-4444--|-------|-6-4-3-1-3-1-|


PRE-CHORUS2:

Guitar 1 & 2:
|----------------------------------------------------------------------|
|----------------------------------------------------------------------|
|-5---------------------------------8----------------------------------|
|-5-55555555555555-6----------------8-88888888888888-8--------9--------|
|-3-33333333333333-6-66666666666666-6-66666666666666-8-888888-9-999999-|
|------------------4-44444444444444------------------6-666666-7-777777-|

Guitar 1:
|----------------------------------------------------------------|
|----------------------------------------------------6-4-3-1-3-4-|
|-5---------------------------------8----------------------------|
|-5-55555555555555-6----------------8-88888888888888-------------|
|-3-33333333333333-6-66666666666666-6-66666666666666-------------|
|------------------4-44444444444444------------------------------|

Guitar 2:
|---11--10---11--10---8888-|---11--10---11--10---8888-|---6--6---6--6---6--6---------------|
|--------------------------|--------------------------|------------------------9-8-6-4-6-8-|
|-77---7---77---7---77-----|-77---7---77---7---77-----|-77--7--77--7--77--7--7-------------|
|--------------------------|--------------------------|------------------------------------|
|--------------------------|--------------------------|------------------------------------|
|--------------------------|--------------------------|------------------------------------|


CHORUS2:

Guitar 1:
|-----------------------------------------|
|-----------------------------------------|
|-----------------------------------------|
|-8-8888888-5-5555555-5-5555555-9-9999999-| 2x
|-6-6666666-5-5555555-3-3333333-9-9999999-|
|-----------3-3333333-----------7-7777777-|

Guitar 2:
|-----------------------------------------|
|-8-8888888-6-6666666-----------6-6666666-|
|-x-xxxxxxx-x-xxxxxxx-8-8888888-x-xxxxxxx-| 2x
|-5-5555555-3-3333333-x-xxxxxxx-3-3333333-|
|---------------------6-6666666-----------|
|-----------------------------------------|


INTERLUDE:

Guitar 1:			    Guitar 2:
|-------|			    |---3--3-4---3-----------|
|-------|			    |----------6---4-3-4-3---|
|-------|			    |----------------------3-|
|-------| 4x		            |-55---------------------| 4x
|-33~~--|			    |-33---------------------|
|-33~~--|			    |------------------------|


BRIDGE:

Guitar 1:
|----------------------------------------------------------------------|
|----------------------------------------------------------------------|
|----------------------------------------------------------------------| 
|-5-55555555555555-6-66666666666666-8-88888888888888-8-888888-9-999999-| 2x
|-3-33333333333333-6-66666666666666-6-66666666666666-8-888888-9-999999-|
|------------------4-44444444444444------------------6-666666-7-777777-|

Guitar 2:

|-3--3-4---3-------------|		   |-8---6---8---6---8-8--|
|--------6---4-3-4-3-----|		   |--88--88--88--88--8-8-|
|--------------------3-5-|		   |----------------------|
|------------------------| 4x		   |----------------------| 4x
|------------------------|		   |----------------------|
|------------------------|		   |----------------------|


VERSE3:

Guitar 1 & 2:
|-------|-------|-------|-------------|
|-------|-------|-------|-------------|
|-------|-------|-------|-------------| 2x
|-5555--|-6666--|-8888--|-8-6-5-3-5-3-|
|-3333--|-6666--|-6666--|-8-6-5-3-5-3-|
|-------|-4444--|-------|-6-4-3-1-3-1-|


CHORUS3:

Guitar 1:
|-----------------------------------------|
|-----------------------------------------|
|-----------------------------------------|
|-8-8888888-5-5555555-5-5555555-9-9999999-| 4x
|-6-6666666-5-5555555-3-3333333-9-9999999-|
|-----------3-3333333-----------7-7777777-|

Guitar 2:
|-----------------------------------------|
|-8-8888888-6-6666666-----------6-6666666-|
|-x-xxxxxxx-x-xxxxxxx-8-8888888-x-xxxxxxx-| 4x
|-5-5555555-3-3333333-x-xxxxxxx-3-3333333-|
|---------------------6-6666666-----------|
|-----------------------------------------|


OUTRO:

Guitar 1:
|-------|		   |---------|
|-------|		   |---------|
|-------|		   |----5~~--|
|-------|		   |----5~~--|
|-33~~--| 4x	           |-33-3~~--|
|-33~~--|		   |-33------|

Guitar 2:
|-3--3-4---3-------------|		   |-3--3-4---3----------------|
|--------6---4-3-4-3-----|		   |--------6---4-3-4-3--------|
|--------------------3-5-|		   |--------------------3-5~~--|
|------------------------| 3x		   |----------------------5~~--|
|------------------------|		   |----------------------3~~--|
|------------------------|		   |---------------------------|


Senthyx Band:
  > jo
  > randz
  > andy
  > pauz
Suggest correction
What's this?
You can suggest a correction to this tab. Community and Mods will review your correction and vote to approve or reject it.
comments
We did not receive enough feedback on this tab! Please rate:
print report bad tab
1 2 3 4 5
guest
You may want to rate the tab now too:
select rating
Please do not post tabs as comments. Select "correction" instead!