Oops, an error
Loading. Please wait.

Ashley Tab

version 1
version 1

Acoustic

Whole song

Interactive

5,542 views 3 this week
no commentswrite comment
1 2 3 4 5
accurate
x 7
add to favorites
launch autoscroll
font size
0
reset
how to read this tab
guitar tuner
Tab Pro tools
  • play this tab
  • loop segment
  • change instrument
  • show fretboard
  • metronome
×
Best way to learn
"Ashley"
Autoscroll
slow
fast
+/-
esc
set tempo
stop
Contributor
-------------------------------------------------------------------------------
                             ASHLEY (ACOUSTIC) - Escape The Fate.
-------------------------------------------------------------------------------

Tabbed by: mariewong.





Tuning: Full step down.





Intro

d|-----------------7-7---7-------------------------------|
A|--3---5-5---5\---0-0---0-7---7---8-8---8\---8-8---8-7--|
F|--0---0-0---0\---4-4---4-0---0---0-0---0\---0-0---0-0--|
C|--0---2-2---2\---5-5---5-4---4---5-5---5\---5-5---5-4--|
G|--2---3-3---3\-----------5---5---7-7---7\---7-7---7-5--|
D|-------------------------------------------------------|

d|-----------------7-7---7-------------------------------|
A|--7---5-5---5\---0-0---0-7---7---8-8---8\---3-3---3-3--|
F|--0---0-0---0\---4-4---4-0---0---0-0---0\---0-0---0-0--|
C|--4---2-2---2\---5-5---5-4---4---5-5---5\---0-0---0-0--|
G|--5---3-3---3\-----------5---5---7-7---7\---2-2---2-2--|
D|-------------------------------------------------------|



Verse

d|--------------------|
A|--5----7----8----8--|
F|--0----0----0----0--|
C|--2----4----5----5--|   [x2]
G|--3----5----7----7--|
D|--------------------|



Pre-chorus

d|----------|
A|--5----7--|
F|--0----0--|
C|--2----4--|
G|--3----5--|
D|----------|



Chorus

d|--------------------|
A|--5----8----7----8--|
F|--0----0----0----0--|
C|--2----5----4----5--|   [x3]
G|--3----7----5----7--|
D|--------------------|

d|--------------------|
A|--5----8----7----7--|
F|--0----0----0----0--|
C|--2----5----4----4--|
G|--3----7----5----5--|
D|--------------------|



Pre-verse

d|-----------------7-7---7-------------------------------|
A|--3---5-5---5\---0-0---0-7---7---8-8---8\---8-8---8-7--|
F|--0---0-0---0\---4-4---4-0---0---0-0---0\---0-0---0-0--|
C|--0---2-2---2\---5-5---5-4---4---5-5---5\---5-5---5-4--|
G|--2---3-3---3\-----------5---5---7-7---7\---7-7---7-5--|
D|-------------------------------------------------------|

d|-----------------7-7---7-------------------------------|
A|--7---5-5---5\---0-0---0-7---7---8-8---8\---3-3---3-3--|
F|--0---0-0---0\---4-4---4-0---0---0-0---0\---0-0---0-0--|
C|--4---2-2---2\---5-5---5-4---4---5-5---5\---0-0---0-0--|
G|--5---3-3---3\-----------5---5---7-7---7\---2-2---2-2--|
D|-------------------------------------------------------|



Verse

d|--------------------|
A|--5----7----8----8--|
F|--0----0----0----0--|
C|--2----4----5----5--|   [x2]
G|--3----5----7----7--|
D|--------------------|



Pre-chorus

d|----------|
A|--5----7--|
F|--0----0--|
C|--2----4--|
G|--3----5--|
D|----------|



Chorus

d|--------------------|
A|--5----8----7----8--|
F|--0----0----0----0--|
C|--2----5----4----5--|   [x3]
G|--3----7----5----7--|
D|--------------------|

d|--------------------|
A|--5----8----7----7--|
F|--0----0----0----0--|
C|--2----5----4----4--|
G|--3----7----5----5--|
D|--------------------|



Bridge

d|-------------------------|
A|--7-7-7-7-7-7---7-7---7--|
F|--0-0-0-0-0-0---0-0---0--|
C|--4-4-4-4-4-4---4-4---4--|
G|--5-5-5-5-5-5---5-5---5--|
D|-------------------------|

d|-----------------------------------------------------|
A|--7---8-8---8-8-8-8---8-8---8---7-7---7-7-7-7---7-7--|
F|--0---0-0---0-0-0-0---0-0---0---0-0---0-0-0-0---0-0--|
C|--4---5-5---5-5-5-5---5-5---5---4-4---4-4-4-4---4-4--|
G|--5---7-7---7-7-7-7---7-7---7---5-5---5-5-5-5---5-5--|
D|-----------------------------------------------------|

d|-----------------------------------------------------|
A|--7---5-5---5-5-5-5---5-5---5---3-3---3-3-7-7---7-7--|
F|--0---0-0---0-0-0-0---0-0---0---0-0---0-0-0-0---0-0--|
C|--4---2-2---2-2-2-2---2-2---2---0-0---0-0-4-4---4-4--|
G|--5---3-3---3-3-3-3---3-3---3---2-2---2-2-5-5---5-5--|
D|-----------------------------------------------------|

d|-----------------------------------------------------|
A|--7---8-8---8-8-8-8---8-8---8---7-7---7-7-7-7---7-7--|
F|--0---0-0---0-0-0-0---0-0---0---0-0---0-0-0-0---0-0--|
C|--4---5-5---5-5-5-5---5-5---5---4-4---4-4-4-4---4-4--|
G|--5---7-7---7-7-7-7---7-7---7---5-5---5-5-5-5---5-5--|
D|-----------------------------------------------------|

d|-------------------------------------------------------|
A|--7---5-5---5-5-5-5---5-5---5---3-3---3-3---7---7---8--|
F|--0---0-0---0-0-0-0---0-0---0---0-0---0-0---0---0---0--|
C|--4---2-2---2-2-2-2---2-2---2---0-0---0-0---4---4---5--|
G|--5---3-3---3-3-3-3---3-3---3---2-2---2-2---5---5---7--|
D|-------------------------------------------------------|



Chorus

d|--------------------|
A|--5----8----7----8--|
F|--0----0----0----0--|
C|--2----5----4----5--|   [x3]
G|--3----7----5----7--|
D|--------------------|

d|--------------------|
A|--5----8----7----7--|
F|--0----0----0----0--|
C|--2----5----4----4--|
G|--3----7----5----5--|
D|--------------------|

d|-------------------------|
A|--7-7-7-7-7-7---7-7---7--|
F|--0-0-0-0-0-0---0-0---0--|
C|--4-4-4-4-4-4---4-4---4--|
G|--5-5-5-5-5-5---5-5---5--|
D|-------------------------|



Outro

d|-----------------7-7---7-------------------------------|
A|--3---5-5---5\---0-0---0-7---7---8-8---8\---8-8---8-7--|
F|--0---0-0---0\---4-4---4-0---0---0-0---0\---0-0---0-0--|
C|--0---2-2---2\---5-5---5-4---4---5-5---5\---5-5---5-4--|
G|--2---3-3---3\-----------5---5---7-7---7\---7-7---7-5--|
D|-------------------------------------------------------|

d|-----------------7-7---7-----------------------------------|
A|--7---5-5---5\---0-0---0-7---7---8-8---8\---3-3---3-3---5--|
F|--0---0-0---0\---4-4---4-0---0---0-0---0\---0-0---0-0---0--|
C|--4---2-2---2\---5-5---5-4---4---5-5---5\---0-0---0-0---2--|
G|--5---3-3---3\-----------5---5---7-7---7\---2-2---2-2---3--|
D|-----------------------------------------------------------|





************************************

| /   slide up
| \   slide down
| h   hammer-on
| p   pull-off
| ~   vibrato
| +   harmonic
| x   Mute note
| b   Bend
| pb  Pre-bend
| br  Bend release
| pbr Pre-bend release
| brb Bend release bend

************************************
comments
print report bad tab
I want to post or [tab]
guest
You may want to rate the tab now too:
select rating
Please do not post tabs as comments. Select "correction" instead!