Oops, an error
Loading. Please wait.

Ashley Bass

version 1
version 1

Whole song

Interactive

18,082 views 3 this week
3 commentsread comments
1 2 3 4 5
x 7
add to favorites
launch autoscroll
font size
0
reset
guitar tuner
×
Best way to learn
"Ashley"
Autoscroll
slow
fast
+/-
esc
set tempo
stop
Author
Difficulty
Tuning
  follow
novice
D A D G
Escape the Fate - Ashley
bass tabs
Drop D
Tabed This For My Girlfriend (Ashley) pretty good song dont liek the lead singer but watever
umm only thing is u need to figure out the timing

|--------------------------------|
|-------55-54--------------------| x2
|-2-33-3-------5-6-6--66-65------|
|--------------------------------|

|--------------------------------|
|--------------------------------| x2
|-33--55--77--77-----------------|
|--------------------------------|

|----------------------------------------------------------------------------------------|
|----------------------------------------------------------------------------------------|
|--3333333333333333-5555555555555555-7777777777777777-77777777-55555555------------------|
|----------------------------------------------------------------------------------------|

|-----------------------------------|
|-----------------------------------|
|-3333333333333333-5555555555555555-|
|-----------------------------------|

|--------------------------------|
|--------------------------------|
|-333333--------555555-77777777--|
|--------333333------------------|

|--------------------------------|
|--------555555------------------|
|-333333--------555555-77777777--|
|--------------------------------|

|--------------------------------|
|--------------------------------|
|-333333--------555555-77777777--|
|--------333333------------------|

|--------------------------------|
|--------555555------------------|
|-333333--------555555-77777777--|
|--------------------------------|

|--------------------------------|
|-------55-54--------------------|x2
|-2-33-3-------5-6-6--66-65------|
|--------------------------------|

|--------------------------------|
|--------------------------------|
|-33--55--77--77-----------------|
|--------------------------------|

|----------------------------------------------------------------------------------------|
|----------------------------------------------------------------------------------------|
|--3333333333333333-5555555555555555-7777777777777777-77777777-55555555------------------|
|----------------------------------------------------------------------------------------|

|-----------------------------------|
|-----------------------------------|
|-3333333333333333-5555555555555555-|
|-----------------------------------|

|--------------------------------|
|--------------------------------|
|-333333--------555555-77777777--|
|--------333333------------------|

|--------------------------------|
|--------555555------------------|
|-333333--------555555-77777777--|
|--------------------------------|

|--------------------------------|
|--------------------------------|
|-333333--------555555-77777777--|
|--------333333------------------|

|--------------------------------|
|--------555555------------------|
|-333333--------555555-77777777--|
|--------------------------------|

|----------------------------------------------------------------------|
|----------------------------------------------------------------------|
|-7-7-7-7-7-7-7-7--5-5-5-5-5-5-5-5--3-3-3-3-3-3-3-3--2-2-2-2-2-2-2-----|
|----------------------------------------------------------------------|

|--------------------------------|
|--------------------------------|
|-333333--------555555-77777777--|
|--------333333------------------|

|--------------------------------|
|--------555555------------------|
|-333333--------555555-77777777--|
|--------------------------------|

|--------------------------------|
|--------------------------------|
|-333333--------555555-77777777--|
|--------333333------------------|

|--------------------------------|
|--------555555------------------|
|-333333--------555555555555555--|
|--------------------------------|

|-------------------------------------|
|-------55-54-------------------------|
|-2-33-3-------5-6-6--66-65-----------|
|-------------------------------------|

|------------------------------------|
|-------55-54------------------------|
|-2-33-3-------5-6-6--66-65--2-33-3--|
|------------------------------------|

Pretty Sure Its Right MEssage Me If U Have Any Fixes To It =]
Suggest correction
comments
print report bad tab
3 comments total.
0 reply
bass-101 10 Nov 08, 2008 10:41 AM

I think it sounds about right..craig rocks btw!

0 reply
leiseritter 15 Nov 14, 2008 01:12 PM

the intro is a lil off

0 reply
midgitmanxx 78 May 01, 2010 07:19 AM

Its also drop c, not d. Etf never uses drop d. Its all done on a 5-string bass drop c and i think the lowest string is a g.

guest
You may want to rate the tab now too:
select rating
Wanna post a correction for this tab? Suggest correction