Oops, an error
Loading. Please wait.

Ashley Tab

version 2
version 2

Intro

Whole song

Interactive

24,764 views 1 this week
no commentswrite comment
1 2 3 4 5
accurate
x 5
add to favorites
launch autoscroll
font size
0
reset
how to read this tab
guitar tuner
Autoscroll
slow
fast
+/-
esc
set tempo
stop
Help us to improve Ultimate-Guitar.com Take our survey!
×
Author
Artist: Escape The Fate
Albumn: This War Is Ours
Tuning: Drop C

I've seen a few intro tabs to this song and I don't think they are very accurate, this 
how I play it and I think this is pretty accurate.

There may be a few slides in here but they shouldn't be too hard to figure out, and it 
fine without them anyway.

|-----------------------------------------------------------|
|-----------------------------------------------------------|
|--7--9-9--9---16-16--16-11---11-12-12--12---12-12--12-11---|
|--x--x-x--x---x--x---x--x----x--x--x---x----x---x--x--x----|
|--5--7-7--7---14-14--14-9----9--10-10--10---10-10--10-9----|
|-----------------------------------------------------------|

|--------------------------------------------------------|
|--------------------------------------------------------|
|--7--9-9--9---16-16--16-11---11-12-12--12----7-7--7-7---|
|--x--x-x--x---x--x---x--x----x--x--x---x-----x-x--x-x---|
|--5--7-7--7---14-14--14-9----9--10-10--10----5-5--5-5---|
|--------------------------------------------------------|


|-----------------------------------------------------------|
|-----------------------------------------------------------|
|--7--9-9--9---16-16--16-11---11-12-12--12---12-12--12-11---|
|--x--x-x--x---x--x---x--x----x--x--x---x----x---x--x--x----|
|--5--7-7--7---14-14--14-9----9--10-10--10---10-10--10-9----|
|-----------------------------------------------------------|

|----------------------------------------------------------|
|----------------------------------------------------------|
|--7--9-9--9---16-16--16-11---11-12-12--12----7-7--7-7--9--|
|--x--x-x--x---x--x---x--x----x--x--x---x-----x-x--x-x--x--|
|--5--7-7--7---14-14--14-9----9--10-10--10----5-5--5-5--7--|
|----------------------------------------------------------|

Note:
If you find it easier you can play:

----      ----|
----      -12-|
-16-      -x--|
-x--  as  -9--|  instead.
-14-      ----|
----      ----|
Suggest correction
comments
print report bad tab
guest
You may want to rate the tab now too:
select rating
Wanna post a correction for this tab? Suggest correction