Oops, an error
Loading. Please wait.

Ashley Bass Tab

version 2
version 2

Whole song

Interactive

24,018 views 6 this week
3 commentsread comments
1 2 3 4 5
excellent!
x 10
add to favorites
launch autoscroll
font size
0
reset
guitar tuner
Autoscroll
slow
fast
+/-
esc
set tempo
stop
Help us to improve Ultimate-Guitar.com Take our survey!
×
Contributor
Difficulty
Tuning
novice
C G C F A D
Artist :Escape The Fate
Track  :Ashley
Album  :This War Is Ours
Tuning :Drop C

I did my best.
Some fills might be wrong, or i didn't get them at all,
Listen To song for proper rhythm. And Enjoy!

-Intro 1-
F--------------------------------|
C----------55-5------------------|
G-2-33-3\------5--5-77-7\--77-75-|
c--------------------------------|

F--------------------------------|
C--------------------------------|
G-2-33-3\------5--5-77-7\--77-77-|
c----------55-5------------------|

-Verse 1-
F----------------------------|
C----------------------------|
G-33-3---55-5---77-7\---77-7-|
C----------------------------|

F-------------------------------------|     |
C-------------------------------------|     |
G-33333333-55555555-77777777-57777777-|fills|
C-------------------------------------|     |

-Pre Chorus 1-
F---------------------------|
C---------------------------|
G-333333333333-555555555555-|
C---------------------------|

-Chorus 1-
F---------------------------------|
C---------------------------------|
G-3-3333----------5-5555-7-777777-|
C--------5-555555-----------------|

F---------------------------------------|
C--------5-555555-----------------------|
G-3-3333----------5-5555-7-777/19191919-|
C---------------------------------------|

F---------------------------------|
C---------------------------------|
G-3-3333----------5-5555-7-777777-|
C--------5-555555-----------------|

F------------------------------|
C------------------------------|
G-3-3333----------577577577577-|
C--------5-555555--------------|

-Intro 2-
F--------------------------------|
C----------55-5------------------|
G-2-33-3\------5--5-77-7\--77-75-|
c--------------------------------|

F--------------------------------|
C--------------------------------|
G-2-33-3\------5--5-77-7\--77-77-|
c----------55-5------------------|

-Verse 2-
F-------------------------------|
C-------------------------------|
G-33-3\---55-5\---77-7\---77-7\-|
C-------------------------------|

F------------------------------------------|     |
C------32----------------------------------|     |
G-33333--3-55555555-77777777-5777999101010-|fills|
C------------------------------------------|     |

-Pre Chorus 2-
F---------------------------|
C---------------------------|
G-333333333333-555555555555-|
C---------------------------|

-Chorus 2-
F---------------------------------|
C---------------------------------|
G-3-3333----------5-5555-7-777777-|
C--------5-555555-----------------|

F---------------------------------------|
C---------------------------------------|
G-3-3333----------5-5555-7-777/19191919-|
C--------5-555555-----------------------|

F---------------------------------|
C---------------------------------|
G-3-3333----------5-5555-7-777777-|
C--------5-555555-----------------|

F------------------------------------------------------------|
C------------------------------------------------------------|
G-3-3333----------577757777/1919171715151414-7-7-7/19-19-19\-|
C--------5-555555--------------------------------------------|

-Bridge-
F-----------------------------------------------------------------|
C-----------------------------------------------------------------|
G-7-7-7-7-7-7-7-7-5-5-5-5-5-5-5-5-3-3-3-3-3-3-3-3-2-2-2-2-5-5-5-5-|
C-----------------------------------------------------------------|

F---------------------------------------------------------------|
C-------------9-9-----------775-------------------------12\-12\-|
G-7-7-7-7-7-77-7-5-5-5-5-5-5---53-3-3-33555577772-2-2-2---------|
C---------------------------------------------------------------|

-Break-

-Chorus 3-
F---------------------------------|
C---------------------------------|
G-3-3333----------5-5555-7-777777-|
C--------5-555555-----------------|

F---------------------------------|
C--------5-555555-----------------|
G-3-3333----------5-5555-57777777-|
C---------------------------------|

F------------------------------------|
C----------------------------1097----|
G-3-3333----------5-5555-7-77----109-|
C--------5-555555--------------------|

F-----------------|     |
C-----------------|     |
G-3-3333----------|fills|     |
C--------5-555555-|     |

-Intro/outro-
F--------------------------------|
C----------55-5------------------|
G-2-33-3\------5--5-77-7\--77-75-|
c--------------------------------|

F--------------------------------|
C--------------------------------|
G-2-33-3\------5--5-77-7\--77-77-|
c----------55-5------------------|

F----------|
C----------|
G-2-33-3\--|
C----------|
comments
print report bad tab
3 comments total.
0 reply
jammyrat 152 wrote on December 10 2008, 12:28 pm

Spot on tab (Y)

0 reply
synysterblack 818 wrote on March 15 2009, 09:18 pm

this is a very good tab
and i think i found the fils you mist
the first fills you missed was some 9 and 10s
and the second one is 12s
and the last i dont knwo
but this is a great tab man

0 reply
synysterblack 818 wrote on April 2 2009, 09:47 pm

i think you shoudl tab something and theres no sympathy fro the dead the right way

I want to post or [tab]
guest
You may want to rate the tab now too:
select rating
Please do not post tabs as comments. Select "correction" instead!