Oops, an error
Loading. Please wait.

Ashley Bass

version 3
version 3

Whole song

Interactive

1,870 views 1 this week
2 commentsread comments
1 2 3 4 5
x 4
add to favorites
launch autoscroll
font size
0
reset
guitar tuner
Autoscroll
slow
fast
+/-
esc
set tempo
stop
Escape the Fate
Ashley
Drop C
Tabbed By: Synysterblack

-Intro-
F|---------------------------------------------------------|
C|---------55-5--------------------------------------------|
G|-2-33-3\-----5-77-7\-77-75--2-33-3\-----5-577-7\-77-77---|
C|------------------------------------55-5-----------------| 

-Verse-
F|---------------------|
C|---------------------|
G|-33\--35--57--57-7---|
C|---------------------|

F|---------------------------------------------------------------------------|
C|---------------------------------------------------------------------------|
G|-3~333333333333333-5~555555555555555-7~777777777777777577777777777910972---|
C|---------------------------------------------------------------------------|

-Pre-chorus-
F|----------------------------------------------|
C|----------------------------------------------|
G|-3333333333333333-55555555/1717171717171717---|
C|----------------------------------------------|

-Chorus-
F|--------------------------------------|
C|--------------------------------------|
G|-3~333335---------555555-7~7777770----|
C|---------5~5555550--------------------|

F|----------------------------------------|
C|---------5~5555555----------------------|
G|-3~333335---------5775775-77/19191919---|
C|----------------------------------------|

F|--------------------------------------|
C|--------------------------------------|
G|-3~333335---------555555-7~7777770----|
C|---------5~5555550--------------------|

F|-----------------------------------|
C|-----------------------------------|
G|-3~333335---------57757757757-75---|
C|---------5~5555555-----------------|

-Intro 2/pre-verse-
F|---------------------------------------------------------|
C|---------55-5--------------------------------------------|
G|-2-33-3\-----5-77-7\-77-75--2-33-3\-----5-577-7\-77-77---|
C|------------------------------------55-5-----------------| 

-Verse 2-
F|------------------------|
C|------------------------|
G|-33\--35\--57\--57-7\---|
C|------------------------|

F|-------------------------------------------------------------------------------|
C|--------------32---------------------------------------------------------------|
G|-3333333333333--3-5555555555555535-77777777777777775777799991010101010101010---|
C|-------------------------------------------------------------------------------|

-Pre-chorus 2-
F|----------------------------------------------|
C|----------------------------------------------|
G|-3333333333333333-55555555/1717171717171717---|
C|----------------------------------------------|

-Chorus 2-
F|-------------------------------------|
C|-------------------------------------|
G|-3~333335---------555555-7~7777770---|
C|---------5~5555550-------------------|

F|----------------------------------------|
C|----------------------------------------|
G|-3~333335---------5775775-77/19191919---|
C|---------5~5555555----------------------|

F|-------------------------------------|
C|-------------------------------------|
G|-3~333335---------555555-7~7777770---|
C|---------5~5555550-------------------|

F|--------------------------------------------------------------------|
C|--------------------------------------------------------------------|
G|-3~333335---------57757777/1919171715151414-7-7-7/19-19-17-19-19\---|
C|---------5~5555555--------------------------------------------------|

-Bridge-
F|-------------------------------------------------------------------|
C|-------------------------------------------------------------------|
G|-7-7-7-7-7-7-7-7-5-5-5-5-5-5-5-5-3-3-3-3-3-3-3-3-2-2-2-2-5-5-5-5---|
C|-------------------------------------------------------------------|

F|------------------------------------------------------------------|
C|----------4-5-7-------75-7-5-------------------------12\-12\------|
G|-7-7-7-7-7-----5-5-5-5------5-3-3-3-3-3-3-3-3-2-2-2-0-------------|
C|------------------------------------------------------------12\---|

-Break-
F|-----------|
C|-----------|
G|-----------|
C|-----------|

-Chorus 3-
F|-------------------------------------|
C|-------------------------------------|
G|-3~333335---------555555-7~7777770---|
C|---------5~5555550-------------------|

F|------------------------------------|
C|---------5~555555-------------------|
G|-3~333335---------5775775-77--------|
C|----------------------------77-77---|

F|---------------------------------------|
C|-----------------------------1097------|
G|-3~3333-5--------5~55555-7-7-----109---|
C|---------5~5555-0----------------------|

F|----------------------------------------------------|
C|----------------------------------------------------|
G|-3~333335---------77-755-533-322-333355557777999\---|
C|---------5~5555500----------------------------------|

-Outro-
F|---------------------------------------------------------|
C|---------55-5--------------------------------------------|
G|-2-33-3\-----5-77-7\-77-75--2-33-3\-----5-577-7\-77-77---|
C|------------------------------------55-5-----------------| 

F|------------|
C|------------|
G|-2-33-15\---|
C|------------|
Suggest correction
comments
print report bad tab
2 comments total.
0 reply
royturner23 1,507 Oct 02, 2009 11:44 AM

there's not much change at all from the other versions.

0 reply
Teh D Bot 11,992 Aug 06, 2012 08:05 PM

i find this much better then the other versions, although similar to the other tabs like the other guy says, that is because they are (mostly) the right notes. Good job

guest
You may want to rate the tab now too:
select rating
Wanna post a correction for this tab? Suggest correction