Oops, an error
Loading. Please wait.

Ashley Tab

version 3
version 3

Whole song

Interactive

5,596 views 6 this week
3 commentsread comments
1 2 3 4 5
please rate
add to favorites
launch autoscroll
font size
0
reset
how to read this tab
guitar tuner
Autoscroll
slow
fast
+/-
esc
set tempo
stop
Help us to improve Ultimate-Guitar.com Take our survey!
×
Author
Escape The Fate
Ashley
From The New Album With The Singer

this song is 100% accurate, the tuning is CGCFAD

shouldnt be to hard for you to figure out the timing

i am just laying down the chords and or bars

ENJOY

INTRO

d-----------------------|
A-------8---------------|
F-4--5--x--7--9--7------|
C-x--x--5--x--x--x------|
G-2--3-----5--7--5------|
C-----------------------|
    then the 2nd part of the verse


d-----------------------|
A-----------------------|
F-4--5-----7--9---------|
C-x--x--5--x--x---------|
G-2--3--5--5--7---------|
C-------5---------------|

VERSE  X2

d-----------------------------|
A-----------------------------|
F------5-----7-----9----------|  X2
C----5-----7-----9------------|
G--3-----5-----7--------------|
C-----------------------------|

THEN ON THE 3RD TIME PLAM MUTE

d----------------------------|
A----------------------------|
F--5-----7-----9-------------|
C--5-----7-----9-------------|
G--3-----5-----7-------------|
C----------------------------|
............................


PRE CHORUS

d-----------|
A-----------|
F--5-----7--|
C--5-----7--|
G--3-----5--|
C-----------|

CHORUS 1ST TIME AROUND

d-----------------------|
A-------8---------------|
F-4--5--x--7--9--7------|
C-4--5--5--7--9--7------|
G-2--3-----5--7--5------|
C-----------------------|

d-----------------------|
A-----------------------|
F-4--5-----7--9---------|
C-4--5--5--7--7---------|
G-2--3--5--5--7---------|
C-------5---------------|


REPEAT THE INTRO, VERSE, PRE VERSE, AND CHORUS BUT PLAY THIS CHORUS THE 2ND TIME AROUND


d-----------------------|
A-----------------------|
F-4--5-----7--9---------|
C-4--5--5--7--7---------|
G-2--3--5--5--7---------|
C-------5---------------|  3X

THEN INTO


BRIDGE

d----------------------------|
A----------------------------|
F-9-9--7-7--5-5--4-4--7-7----|
C-9-9--7-7--5-5--4-4--7-7----|  X2
G-7-7--5-5--3-3--2-2--5-5----|
C----------------------------|


AND MUTE


CHORUS

d-----------------------|
A-------8---------------|
F-4--5--x--7--9--7------|
C-4--5--5--7--9--7------|
G-2--3-----5--7--5------|
C-----------------------|
    then the 2nd part of the verse


d-----------------------|
A-----------------------|
F-4--5-----7--9---------|
C-4--5--5--7--9---------|
G-2--3--5--5--7---------|
C-------5---------------|

AND FINISH WITH


OUTRO

d-----------------------|
A-------8---------------|
F-4--5--x--7--9--7------|
C-x--x--5--x--x--x------|
G-2--3-----5--7--5------|
C-----------------------|
    then the 2nd part of the verse


d-----------------------|
A-----------------------|
F-4--5-----7--9---------|
C-x--x--5--x--x---------|
G-2--3--5--5--7---------|
C-------5---------------|

END ON A C


THATS ALL

NOW GO ROCK N ROLL
Suggest correction
Give kudos to tab author, rate the tab!
1 2 3 4 5
comments
print report bad tab
3 comments total.
+1 reply
PoisonSnakePit 41 wrote on March 19 2009, 08:30 pm

i would like to comment that your tab is 100% incorrect not correct..dont lie to people bout the validity of your tab

0 reply
Hazzarox321 94 wrote on June 12 2010, 10:47 pm

thia tab is gay u cant tab for shit

0 reply
Hazzarox321 94 wrote on June 12 2010, 10:48 pm

oh and the new singers name is craig mabbit

guest
You may want to rate the tab now too:
select rating
Please do not post tabs as comments. Select "correction" instead!