Oops, an error
Loading. Please wait.

Ashley Tab

version 5
version 5

Whole song

Interactive

29,003 views 36 this week
2 commentsread comments
1 2 3 4 5
x 9
add to favorites
launch autoscroll
font size
0
reset
how to read this tab
guitar tuner
×
Best way to learn
"Ashley"
Autoscroll
slow
fast
+/-
esc
set tempo
stop
Author
Difficulty
Tuning
novice
C G C F A D
Artist:Escape The Fate
Song:Ashley
Album:This War Is Ours 
Tuning: Drop C Low To High CGCFAD
Type Of Tab: Ultimate Tab (Bass Guitar,Guitar And Lyrics)

[INTRO]
D|---------------------------------------------------|
A|---------------------------------------------------|
F|-x7-99-9-9\----1616-16-11-11-1212-12-12\-----------|
C|-xx-xx-x-x\-----x-x--x-x--x---x-x--x--x\-----------|
G|-x5-77-7-7\----1414-14-9--9--1010-10-10\-----------|
C|---------------------------------------------------|

D|----------------------------------------------------------|
A|----------------------------------------------------------|
F|1212-12-11-11\-99-9-9/--1616-16-11-11-1212-12-12-1212-11--|
C|-x-x--x-x--x\--xx-x-x/---x-x--x-x--x---x-x--x--x--x-x--x--|
G|1010-10-9--9\--77-7-7/--1414-14-9--9--1010-10-10-1010--9--|
C|----------------------------------------------------------|

[Intro]
(With Rest Of Band)
D|-----------------------------------------------|
A|--------------88-8-----------------------------|
F|------4/5-55--xx-x-7-7/9-99-99-9-7-7\-55-5-----|
C|------x/x-xx--55-5-x-x/x-x--xx-x-x-x\-xx-x-----|
G|------2/3-33--xx-x-5-5/7-77-77-7-5-5\-33-3-----|
C|-----------------------------------------------|

D|------------------------------------|
A|--------88-8------------------------|
F|--------xx-x-7-7/9-99-99-9-7-7------|
C|--------55-5-x-x/x-x--xx-x-x-x------|
G|--------xx-x-5-5/7-77-77-7-5-5------|
C|------------------------------------|

[Verse]
D|-----10-10-87--8-7-7------------10--10--1012----7--8--7---|
A|---88--8--8--88-8-8-8-------1010--10--10----1010-10-------|
F|----------------------------------------------------------|
C|----------------------------------------------------------|
G|----------------------------------------------------------|
C|----------------------------------------------------------|

D|-----7-7----------------------7-7------7---108------------|
A|---58-8-887---8--7----------58-8-887-----7----------------|
F|-------------9----97------------------9-9-9---------------|
C|----------------------------------------------------------|
G|----------------------------------------------------------|
C|----------------------------------------------------------|

[Pre-chorus]
D|---------------------------------------------|
A|---------------------------------------------|
F|---555555555555555555/7777777777777777777777-|
C|---555555555555555555/7777777777777777777777-|
G|---333333333333333333/5555555555555555555555-|
C|---------------------------------------------|

[Chorus]
D|-----------------------------------------------------------------------|
A|-----------------------------------------------------------------------|
F|---55555--------------------------555555---555555----77777-------99999-|
C|---xxxxx--55555-000000---22222----xxxxxx---555555----xxxxx-------xxxxx-|
G|---33333--55555-000000---22222----333333---555555----55555-------77777-|
C|----------55555-000000---22222-----------------------------------------|

[Intro]
(With Rest Of Band)
D|-----------------------------------------------|
A|--------------88-8-----------------------------|
F|------4/5-55--xx-x-7-7/9-99-99-9-7-7\-55-5-----|
C|------x/x-xx--55-5-x-x/x-x--xx-x-x-x\-xx-x-----|
G|------2/3-33--xx-x-5-5/7-77-77-7-5-5\-33-3-----|
C|-----------------------------------------------|

D|------------------------------------|
A|--------88-8------------------------|
F|--------xx-x-7-7/9-99-99-9-7-7------|
C|--------55-5-x-x/x-x--xx-x-x-x------|X2
G|--------xx-x-5-5/7-77-77-7-5-5------|
C|------------------------------------|
            
D|------------------------------------------|
A|----------------------17-16-14------------|
F|----17-16-14-------------------17-16-14---|
C|-------------17-16-14---------------------|X2
G|------------------------------------------|
C|------------------------------------------|

[Verse]
D|-----10-10-87--8-7-7------------10--10--1012----7--8--7---|
A|---88--8--8--88-8-8-8-------1010--10--10----1010-10-------|
F|----------------------------------------------------------|
C|----------------------------------------------------------|
G|----------------------------------------------------------|
C|----------------------------------------------------------|

D|-----7-7----------------------7-7------7---108------------|
A|---58-8-887---8--7----------58-8-887-----7----------------|
F|-------------9----97------------------9-9-9---------------|
C|----------------------------------------------------------|
G|----------------------------------------------------------|
C|----------------------------------------------------------|

[Pre-chorus]
D|---------------------------------------------|
A|---------------------------------------------|
F|---555555555555555555/7777777777777777777777-|
C|---555555555555555555/7777777777777777777777-|
G|---333333333333333333/5555555555555555555555-|
C|---------------------------------------------|

[Chorus]
D|-----------------------------------------------------------------------|
A|-----------------------------------------------------------------------|
F|---55555--------------------------555555---555555----77777-------99999-|
C|---xxxxx--55555-000000---22222----xxxxxx---555555----xxxxx-------xxxxx-|
G|---33333--55555-000000---22222----333333---555555----55555-------77777-|
C|----------55555-000000---22222-----------------------------------------|

[Bridge]
D|---------------------------------------------------------------------|
A|---------------------------------------------------------------------|
F|---9---9---9---9---9---9---9---9---7---7---7---7---7---7---7---7---5-|
C|---x---x---x---x---x---x---x---x---x---x---x---x---x---x---x---x---x-|
G|---7---7---7---7---7---7---7---7---5---5---5---5---5---5---5---5---3-|
C|---------------------------------------------------------------------|

D|-----------------------------------------------------------------|
A|-----------------------------------------------------------------|
F|---5---5---5---5---5---5---5---7---7---7---7---7---7---7---7--9--|
C|---x---x---x---x---x---x---x---x---x---x---x---x---x---x---x--x--|
G|---3---3---3---3---3---3---3---5---5---5---5---5---5---5---5--7--|
C|-----------------------------------------------------------------|

[Solo]
    T       T        T        T        T        T        T        T
D|-19-15-12---------------------------------------------------------------|
A|---------20-15-12-22-15-12-20-15-12-17-12-15-19-12-15-20-12-15-19-12-15-|
F|------------------------------------------------------------------------|
C|------------------------------------------------------------------------|
G|------------------------------------------------------------------------|
C|------------------------------------------------------------------------|

    T       T        T        T        T        T        T(tap and hold)      
D|-19-15-12--------------------------------------------17-----------------|
A|---------20-15-12-22-15-12-20-15-12-17-12-15-19-12-15-------------------|
F|------------------------------------------------------------------------|
C|------------------------------------------------------------------------|
G|------------------------------------------------------------------------|
C|------------------------------------------------------------------------|

    T       T       T       T       T       T       T       T 
D|-15-8-12-19-8-12-15-8-12-19-8-12-17-8-12-20-8-12-19-8-12-19-8-12-------|
A|-----------------------------------------------------------------------|
F|-----------------------------------------------------------------------|
C|-----------------------------------------------------------------------|
G|-----------------------------------------------------------------------|
C|-----------------------------------------------------------------------|

    T        T        T        T
D|----------------------------------------------------------------------|
A|-17-15-12-19-15-12-20-15-12-22-12-15----------------------------------|
F|----------------------------------------------------------------------|
C|-------------------------------------12\----12\-----------------------|
G|-------------------------------------12\----12\-----------------------|
C|-------------------------------------12\----12\-----------------------|

[Chorus]
D|-----------------------------------------------------------------------|
A|-----------------------------------------------------------------------|
F|---55555--------------------------555555---555555----77777-------99999-|
C|---xxxxx--55555-000000---22222----xxxxxx---555555----xxxxx-------xxxxx-|
G|---33333--55555-000000---22222----333333---555555----55555-------77777-|
C|----------55555-000000---22222-----------------------------------------|

[Intro](With Rest Of Band)
D|-----------------------------------------------|
A|--------------88-8-----------------------------|
F|------4/5-55--xx-x-7-7/9-99-99-9-7-7\-55-5-----|
C|------x/x-xx--55-5-x-x/x-x--xx-x-x-x\-xx-x-----|
G|------2/3-33--xx-x-5-5/7-77-77-7-5-5\-33-3-----|
C|-----------------------------------------------|

D|------------------------------------|
A|--------88-8------------------------|
F|--------xx-x-7-7/9-99-99-9-7-7------|
C|--------55-5-x-x/x-x--xx-x-x-x------|X2
G|--------xx-x-5-5/7-77-77-7-5-5------|
C|------------------------------------|
            
D|------------------------------------------|
A|----------------------17-16-14------------|
F|----17-16-14-------------------17-16-14---|
C|-------------17-16-14---------------------|X2
G|------------------------------------------|
C|------------------------------------------|

[BASS]
[Intro 1]
F|--------------------------------|
C|----------55-5------------------|
G|-2-33-3\------5--5-77-7\--77-75-|
c|--------------------------------|

F|--------------------------------|
C|--------------------------------|
G|-2-33-3\------5--5-77-7\--77-77-|
c|----------55-5------------------|

[Verse 1]
F|----------------------------|
C|----------------------------|
G|-33-3---55-5---77-7\---77-7-|
C|----------------------------|

F|-------------------------------------|     
C|-------------------------------------|     
G|-33333333-55555555-77777777-57777777-|(fills)
C|-------------------------------------|     

[Pre Chorus 1]
F|---------------------------|
C|---------------------------|
G|-333333333333-555555555555-|
C|---------------------------|

[Chorus 1]
F|---------------------------------|
C|---------------------------------|
G|-3-3333----------5-5555-7-777777-|
C|--------5-555555-----------------|

F|---------------------------------------|
C|--------5-555555-----------------------|
G|-3-3333----------5-5555-7-777/19191919-|
C|---------------------------------------|

F|---------------------------------|
C|---------------------------------|
G|-3-3333----------5-5555-7-777777-|
C|--------5-555555-----------------|

F|------------------------------|
C|------------------------------|
G|-3-3333----------577577577577-|
C|--------5-555555--------------|

[Intro 2]
F|--------------------------------|
C|----------55-5------------------|
G|-2-33-3\------5--5-77-7\--77-75-|
c|--------------------------------|

F|--------------------------------|
C|--------------------------------|
G|-2-33-3\------5--5-77-7\--77-77-|
c|----------55-5------------------|

[Verse 2]
F|-------------------------------|
C|-------------------------------|
G|-33-3\---55-5\---77-7\---77-7\-|
C|-------------------------------|

F|------------------------------------------|     
C|------32----------------------------------|     
G|-33333--3-55555555-77777777-5777999101010-|fills
C|------------------------------------------|     

[Pre Chorus 2]
F|---------------------------|
C|---------------------------|
G|-333333333333-555555555555-|
C|---------------------------|

[Chorus 2]
F|---------------------------------|
C|---------------------------------|
G|-3-3333----------5-5555-7-777777-|
C|--------5-555555-----------------|

F|---------------------------------------|
C|---------------------------------------|
G|-3-3333----------5-5555-7-777/19191919-|
C|--------5-555555-----------------------|

F|---------------------------------|
C|---------------------------------|
G|-3-3333----------5-5555-7-777777-|
C|--------5-555555-----------------|

F|------------------------------------------------------------|
C|------------------------------------------------------------|
G|-3-3333----------577757777/1919171715151414-7-7-7/19-19-19\-|
C|--------5-555555--------------------------------------------|

[Bridge]
F|-----------------------------------------------------------------|
C|-----------------------------------------------------------------|
G|-7-7-7-7-7-7-7-7-5-5-5-5-5-5-5-5-3-3-3-3-3-3-3-3-2-2-2-2-5-5-5-5-|
C|-----------------------------------------------------------------|

F|---------------------------------------------------------------|
C|-------------9-9-----------775-------------------------12\-12\-|
G|-7-7-7-7-7-77-7-5-5-5-5-5-5---53-3-3-33555577772-2-2-2---------|
C|---------------------------------------------------------------|

[Break]

[Chorus 3]
F|---------------------------------|
C|---------------------------------|
G|-3-3333----------5-5555-7-777777-|
C|--------5-555555-----------------|

F|---------------------------------|
C|--------5-555555-----------------|
G|-3-3333----------5-5555-57777777-|
C|---------------------------------|

F|------------------------------------|
C|----------------------------1097----|
G|-3-3333----------5-5555-7-77----109-|
C|--------5-555555--------------------|

F|-----------------|     
C|-----------------|    
G|-3-3333----------|fills
C|--------5-555555-|     

[Intro/outro]
F|--------------------------------|
C|----------55-5------------------|
G|-2-33-3\------5--5-77-7\--77-75-|
c|--------------------------------|

F|--------------------------------|
C|--------------------------------|
G|-2-33-3\------5--5-77-7\--77-77-|
c|----------55-5------------------|

F|----------|
C|----------|
G|-2-33-3\--|
C|----------|

[Lyrics]
Shadows fall on yesterday,
its like time just slips away.
I'm nothing, darkness follows me.

The dawn, it never shows its head.
I'm left dying here instead with nothing,
a lock without a key.

Like the brightest star you shine through.
Ashley, baby, you make me feel so alive.
I've got purpose once again.
Yeah, yeah.
Ashley, baby, you make me feel so alive.
I've got purpose once again.
Yeah, yeah.
(I've got purpose once again.)

If looks could kill you'd be the one,
that takes my world and makes me numb.
I'm nothing, without you i can't breathe.
(I can't breathe.)
And as the sunlight burns the sky,
I see through my obsessive eyes.
I'm nothing, without you i can't see.

Like the brightest star you shine through.
Ashley, baby, you make me feel so alive.
I've got purpose once again.
Yeah, yeah.
Ashley, baby, you make me feel so alive.
I've got purpose once again.
Yeah, yeah.
Yeah, yeah.

You're the strength i need to fight,
You're the reason i still try.
I'm the moth and you're the light
Use these wings so i can fly,
I can fly.

Ashley, baby, you make me feel so alive.
I've got purpose once again.
Yeah, yeah.
Ashley, baby, you make me feel so alive.
I've got purpose once again.
Yeah, yeah.
Ashley, baby, you make me feel so alive.
I've got purpose once again.
Yeah, yeah.
Yeah, yeah.

I've got purpose once again.
I've got purpose once again
Suggest correction
comments
print report bad tab
2 comments total.
0 reply
Pinkpig209 10 Oct 09, 2010 06:36 PM

Sweet as tab ! 5 stars

-1 reply
Hazzarox321 94 Oct 29, 2010 08:56 PM

thank you very much

guest
You may want to rate the tab now too:
select rating
Wanna post a correction for this tab? Suggest correction