Oops, an error
Loading. Please wait.

Bad Blood Bass Tab

version 1
version 1

Whole song

Interactive

2,869 views 1 this week
no commentswrite comment
1 2 3 4 5
excellent!
x 7
add to favorites
launch autoscroll
font size
0
reset
guitar tuner
Tab Pro tools
  • play this tab
  • loop segment
  • change instrument
  • show fretboard
  • metronome
×
Best way to learn
"Bad Blood"
Autoscroll
slow
fast
+/-
esc
set tempo
stop
Contributor
Tuning
C G C F A D
-------------------------------------------------------------------------------
			     BAD BLOOD - Escape The Fate
-------------------------------------------------------------------------------

Tabbed By : mariewong.





Tuning: Drop C.





Intro [00:09]

F|--------------------------|
C|--------------------------|
G|--------------------------|
C|--0000--0000--0000--0000--|

F|----------------------------|
C|----------------------------|
G|----------------------------|     [x2]
C|--0-0000--0000--0000--0000--|

F|-------------------------------|
C|-------------------------------|
G|-------------------------------|
C|--0-0000--0000--0000--00-0000--|



[00:25]

F|-----------------------------------------------|
C|-----------------------------------------------|
G|--5-0-5-6666-111-333-11---5-0-5-6666-11-3-3-1--|     [x2]
C|-----------------------------------------------|



Verse [00:40]

F|--------------------|
C|--------------------|
G|--5-0--5-6--6-6-68--|     [x4]
C|--------------------|



Pre-chorus [00:56]

F|-----------------------------|
C|-----------------------------|
G|-----------------------------|     [x3]
C|--0000--1111--3333--1111-11--|

F|-----------------------------|
C|-----------------------------|
G|-----------------------------|
C|--0000--1111--3333--11-1111--|



Chorus [01:12]

F|-------------------------------------------------|
C|-------------------------------------------------|
G|--5-0-5-66666-111-333-11---5-0-5-66666-11-3-3-1--|     [x2]
C|-------------------------------------------------|



Verse [01:27]

F|----------|
C|----------|
G|--6-6-68--|
C|----------|

F|--------------------|
C|--------------------|
G|--5-0--5-6--6-6-68--|     [x3]
C|--------------------|



Pre-chorus [01:43]

F|-----------------------------|
C|-----------------------------|
G|-----------------------------|     [x3]
C|--0000--1111--3333--1111-11--|

F|-----------------------------|
C|-----------------------------|
G|-----------------------------|
C|--0000--1111--3333--11-1111--|



Chorus [01:58]

F|-------------------------------------------------|
C|-------------------------------------------------|
G|--5-0-5-66666-111-333-11---5-0-5-66666-11-3-3-1--|     [x4]
C|-------------------------------------------------|

F|------------|
C|------------|
G|--33-3-3-1--|
C|------------|



Bridge [02:32]

F|-----------------------------------|
C|-----------------------------------|
G|-----------------------------------|
C|--0000-0000-0-00----0000-0000-0-0--|

F|-------------------------------------------------|
C|-------------------------------------------------|
G|-------------------------------------------------|     [x2]
C|--0000-0000-0-00---1-3~----0000-0000-0-00---000--|



Solo [02:58]

F|-------------------------------------------------|
C|-------------------------------------------------|
G|--5-0-5-66666-111-333-11---5-0-5-66666-11-3-3-1--|     [x2]
C|-------------------------------------------------|

F|------------|
C|------------|
G|--11-3-3-1--|
C|------------|



Chorus [03:13]

F|-------------------------------------------------|
C|-------------------------------------------------|
G|--5-0-5-66666-111-333-11---5-0-5-66666-11-3-3-1--|     [x2]
C|-------------------------------------------------|

F|------------|
C|------------|
G|--11-3-3-1--|
C|------------|



Outro [03:30]

F|------------------|
C|------------------|
G|------------------|     [x6]
C|--0000-0000-0-00--|

F|----------------------------------|
C|----------------------------------|
G|----------------------------------|     [x2]
C|--12\-0000-0-00----12\-0000-0-00--|





| /  slide up
| \  slide down
| h  hammer-on
| p  pull-off
| ~  vibrato
| +  harmonic
| x  Mute note
===============================================================================
comments
print report bad tab
I want to post or [tab]
guest
You may want to rate the tab now too:
select rating
Please do not post tabs as comments. Select "correction" instead!