Oops, an error
Loading. Please wait.

Behind The Mask Tab

version 1
version 1

Solo

Whole song

6,818 views 3 this week
6 commentsread comments
1 2 3 4 5
worth learning
x 3
add to favorites
launch autoscroll
font size
0
reset
how to read this tab
guitar tuner
Tab Pro tools
  • play this tab
  • loop segment
  • change instrument
  • show fretboard
  • metronome
Autoscroll
slow
fast
+/-
esc
set tempo
stop
Contributor
Difficulty
Tuning
Tabbers playing skills
intermediate
C G C F A D
beginner +
Escape The Fate-Behind The Mask
This War Is Ours (2010)
Guitar Tab by Ryan Ryngaert
Drop C Tuning (C, G, C, F, A, D)

Intro
D----------------------------------------------------------|x2
A----------------------------------------------------------|
F----------------------------------------------------------|
C----------------------------------------------------------|
G-1-3--------------4-3-------------6-3-------------4-3-----|
C-1-3--3-3-3-3-3-3-----3-3-3-3-3-3-----3-3-3-3-3-3-----6-3-|

Verse
D----------------------------------------------------------|x4
A----------------------------------------------------------|
F----------------------------------------------------------|
C----------------------------------------------------------|
G-1-3--------------4-3-------------6-3-------------4-3-----|
C-1-3--3-3-3-3-3-3-----3-3-3-3-3-3-----3-3-3-3-3-3-----6-3-|

Pre-Chorus
D-----------------|x2
A-----------------|
F-----------------|
C-6-6-6-6-8-8-8-8-|
G-4-4-4-4-6-6-6-6-|
C-----------------|

Chorus
D---------------------------------------------------|x2
A---------------------------------------------------|
F---------------------------------------------------|
C-------------5--5--5-5-5--6--6--6-6-6--8--8--8-8-8-|
G-3--3--3-3-3-3--3--3-3-3--4--4--4-4-4--6--6--6-6-6-|
C-3--3--3-3-3---------------------------------------|

Verse
D----------------------------------------------------------|x4
A----------------------------------------------------------|
F----------------------------------------------------------|
C----------------------------------------------------------|
G-1-3--------------4-3-------------6-3-------------4-3-----|
C-1-3--3-3-3-3-3-3-----3-3-3-3-3-3-----3-3-3-3-3-3-----6-3-|

Pre-Chorus
D-----------------|x2
A-----------------|
F-----------------|
C-6-6-6-6-8-8-8-8-|
G-4-4-4-4-6-6-6-6-|
C-----------------|

Chorus
D---------------------------------------------------|x4
A---------------------------------------------------|
F---------------------------------------------------|
C-------------5--5--5-5-5--6--6--6-6-6--8--8--8-8-8-|
G-3--3--3-3-3-3--3--3-3-3--4--4--4-4-4--6--6--6-6-6-|
C-3--3--3-3-3---------------------------------------|

Breakdown
D----------------------------------------------------------|x8
A----------------------------------------------------------|
F----------------------------------------------------------|
C----------------------------------------------------------|
G-1-3--------------4-3-------------6-3-------------4-3-----|
C-1-3--3-3-3-3-3-3-----3-3-3-3-3-3-----3-3-3-3-3-3-----6-3-|

Solo
e--------------|
b--------------|
g--------------|
d----7~~-------|
a--------------|
e--------------|

D--------------------/18--15h16p15-----20----------------------------13-----------------|
A-13-1313b--18-1818b---------------16--------11-----13b-13b-13b----13----(x2)---13--13b-|
F-15-1515b---------------------------------13--13---15b-15b-15b--15-----------15----15b-|
C---------------------------------------------------------------------------------------|
G---------------------------------------------------------------------------------------|
C---------------------------------------------------------------------------------------|

D------------------------------------------------------|
A-16b-17*-----11-9-------------------------------------|
F---------10-------------------------------------------|
C------------------------------------------------------|
G------------------------------------------------------|
C------------------------------------------------------|

D-131313-16p1313-18p13131313-20p1313-21p1313-20p1313-1818p1616-181818-2020p1818p1515p161616--|
A--------------------------------------------------------------------------------------------|
F--------------------------------------------------------------------------------------------|
C--------------------------------------------------------------------------------------------|
G--------------------------------------------------------------------------------------------|
C--------------------------------------------------------------------------------------------|

D---------------------------------------------------------------------------------------|
A---------------------------------------------------------------------------------------|
F-101010-13p1010-15p1010-17p1010-18p1010-17p1010-1515p1313-151515-1717-1515-1212-131313-|
C---------------------------------------------------------------------------------------|
G---------------------------------------------------------------------------------------|
C---------------------------------------------------------------------------------------|

D-1313p15-13-16p15-13-----1515p16-15-18p16-15-----1616-18p16-20p18-16-|
A---------------------------------------------------------------------|
F---------------------------------------------------------------------|
C---------------------------------------------------------------------|
G---------------------------------------------------------------------|
C---------------------------------------------------------------------|

D-1313-------------------|
A------16p13-16-13p12----|
F---------------------15-|
C------------------------|
G------------------------|
C------------------------|

D---------------13-16-18p16----------|
A----------------------------18-18*--|
F------13-15-17----------------------|
C-13-15------------------------------|
G------------------------------------|
C------------------------------------|

Chorus
D---------------------------------------------------|x4
A---------------------------------------------------|
F---------------------------------------------------|
C-------------5--5--5-5-5--6--6--6-6-6--8--8--8-8-8-|
G-3--3--3-3-3-3--3--3-3-3--4--4--4-4-4--6--6--6-6-6-|
C-3--3--3-3-3---------------------------------------|

Outro
D----------------------------------------------------------|x2
A----------------------------------------------------------|
F----------------------------------------------------------|
C----------------------------------------------------------|
G-1-3--------------4-3-------------6-3-------------4-3-----|
C-1-3--3-3-3-3-3-3-----3-3-3-3-3-3-----3-3-3-3-3-3-----6-3-|

D-----------------------|
A-----------------------|
F-----------------------|
C-----------------------|
G-4--4-3--------------3-|
C--------6--8--8-6-1--3-|

That is the whole song, except the Solo.
Good Luck!
comments
We did not receive enough feedback on this tab! Please rate:
print report bad tab
1 2 3 4 5
6 comments total. Showing first comments.
0 reply
adver wrote on May 12 2010, 09:58 am

yeaaaahhhhhhhh

0 reply
hi :) wrote on August 11 2011, 02:01 pm

what does p mean

0 reply
hi :) wrote on August 22 2011, 07:18 pm

what does h men????

I want to post or [tab]
guest
You may want to rate the tab now too:
select rating
Please do not post tabs as comments. Select "correction" instead!