Oops, an error
Loading. Please wait.

Behind The Mask Tab

version 2
version 2

Whole song

5,646 views 1 this week
1 commentread comment
1 2 3 4 5
excellent!
x 4
add to favorites
launch autoscroll
font size
0
reset
how to read this tab
guitar tuner
Autoscroll
slow
fast
+/-
esc
set tempo
stop
Help us to improve Ultimate-Guitar.com Take our survey!
×
Author
Difficulty
Tuning
intermediate
C G C F A D
Escape The Fate-Behind The Mask

Tabbed by ADVER

Tuning: DROP C


x-mute
/ \-slide
*-pinch harmonic
b-bend
~-let ring
V-vibrato
p-pull off
h-hammer on

INTRO BIT
D|------------|
A|------------|
F|------------|
C|-6-5-55-----|
G|-6-6-66-----|
C|------------|

MAIN RIFF

D|------------------------------------------|
A|------------------------------------------|
F|------------------------------------------|
C|-1/3-333-----333-----333--------------1/3-|
G|-1/3-333-4p3-333-6p3-333---1--1-------1/3-|
C|-1/3-333-----333-----333--0-----6p5p1-1/3-|
       xxx     xxx     xxx

PRE-CHORUS
D|----------------------|
A|----------------------|
F|-6~~8-8-8--6~~8-8-88\-|
C|-6~~8-8-8--6~~8-8-88\-|
G|-4~~6-6-6--4~~6-6-66\-|
C|----------------------|


CHORUS

D|---------------------------------------|
A|---------------------------------------|
F|--------55555-66666-88888------8-8-88\-|
C|-33333--55555-66666-88888------8-8-88\-|
G|-33333--33333-44444-66666------6-6-66\-|
C|-33333---------------------------------|


SOLO

whammy bar
D|----------/-----------|
A|---------/------------|
F|--------/-------------|
C|-\--7~~/--------------|
G|--\---/---------------|
C|---\-/----------------|
      ^-hit the note at the very bottom then rise up gradually and slowly

D|--------------------/18--15h16p15-----20----------------------------13-----------------|
A|-13-1313b--18-1818b---------------16--------11-----13b-13b-13b----13----(x2)---13--13b-|
F|-15-1515b---------------------------------13--13---15b-15b-15b--15-----------15----15b-|
C|---------------------------------------------------------------------------------------|
G|---------------------------------------------------------------------------------------|
C|---------------------------------------------------------------------------------------|

D|------------------------------------------------------|
A|-16b-17*-----11-9-------------------------------------|
F|---------10-------------------------------------------|
C|------------------------------------------------------|
G|------------------------------------------------------|
C|------------------------------------------------------|

I tabbed the correct notes for these octave tremelo parts so if this is a stretch for you

just figure another way of playing these.

tremelo bit guitar 1
D|-131313-16p1313-18p13131313-20p1313-21p1313-20p1313-1818p1616-181818-2020p1818p1515p161616--|
A|--------------------------------------------------------------------------------------------|
F|--------------------------------------------------------------------------------------------|
C|--------------------------------------------------------------------------------------------|
G|--------------------------------------------------------------------------------------------|
C|--------------------------------------------------------------------------------------------|

tremelo bit guitar 2 same thing octave lower
D|---------------------------------------------------------------------------------------|
A|---------------------------------------------------------------------------------------|
F|-101010-13p1010-15p1010-17p1010-18p1010-17p1010-1515p1313-151515-1717-1515-1212-131313-|
C|---------------------------------------------------------------------------------------|
G|---------------------------------------------------------------------------------------|
C|---------------------------------------------------------------------------------------|

another tremelo bit
D|-1313-15p13-16p15-13-----1515-16p15-18p16-15-----1616-18p16-20p18-16-|
A|---------------------------------------------------------------------|
F|---------------------------------------------------------------------|
C|---------------------------------------------------------------------|
G|---------------------------------------------------------------------|
C|---------------------------------------------------------------------|


D|-1313-------------------|
A|------16p13-16-13p12----|
F|---------------------15-|
C|------------------------|
G|------------------------|
C|------------------------|


D|---------------13-16-18p16----------|
A|----------------------------18-18*--|
F|------13-15-17----------------------|
C|-13-15------------------------------|
G|------------------------------------|
C|------------------------------------|
Suggest correction
comments
print report bad tab
1 comment total.
0 reply
Ryanuofm86 677 wrote on May 11 2010, 08:55 pm

yeaaaahhhhhhhh

guest
You may want to rate the tab now too:
select rating
Wanna post a correction for this tab? Suggest correction