Oops, an error
Loading. Please wait.

Breaking Me Down solo tab

version 1
version 1

Solo

  • Not sure on the tuning of the actual song but if a... Show more

Whole song

  • First tab of the whole song. includes solo. will u... Show more
169 views 9 this week
3 commentsread comments
1 2 3 4 5
2 more votes to show rating
add to favorites
×
Save as Personal and add changes to this tab that will be seen only by you. Learn more ›
×
You can save this tab as Personal to edit and correct it or add notes. All changes will be seen only by you. Learn more »
launch autoscroll
font size
0
reset
how to read this tab
guitar tuner
edit
Autoscroll
slow
fast
+/-
esc
set tempo
stop
Author
Difficulty
About this tab version
Not sure on the tuning of the actual song but if anyone indicates it, I'll transpose to suit the song-tuning. Was this info helpful? Yes No
[Solo]
       hold    bend
e|----------13---------------------------------------------------------------|
B|--13fb----13---13br~------18fb---pbr18---18-18p16-16\15-15\13-13-15~~---\--|
G|-----------------------15--------------------------------------------------|
D|---------------------------------------------------------------------------|
A|---------------------------------------------------------------------------|
E|---------------------------------------------------------------------------|

e|------------------------------------------|
B|------------------------------------------|
G|--12/14~~----12-14-15~~----12/14-15-17~~--|
D|------------------------------------------|
A|------------------------------------------|
E|------------------------------------------|

       hold    bend
e|----------18---------------------------------------------------|
B|--18fb----18---18rb--18~~---18-18p16-16\15-15\13-13-15~~~---15-|
G|---------------------------------------------------------------|
D|---------------------------------------------------------------|
A|---------------------------------------------------------------|
E|---------------------------------------------------------------|

e|------------------------------------------------------------------------------------------------17h18-|
B|-------15h16----15h16h18------18h20---15h16h18------18h20------20h22---18-18h20------20h22-18h20------|lots 
G|--15h17------h17---------19h20------17---------19h20------20h22------19---------20h22-----------------|of  
D|------------------------------------------------------------------------------------------------------|four
A|------------------------------------------------------------------------------------------------------|
E|------------------------------------------------------------------------------------------------------|

       h o l d  the  b e n d
e|---------18----18----18---------| lighten the
B|--18fb------18----18----18------| 18's to
G|--------------------------------| fade out...
D|--------------------------------|
A|--------------------------------|
E|--------------------------------|

************************************

| p    Pull-off
| pbr  Pre-bend release
| \    Slide down
| ~    Vibrato
| /    Slide up
| h    Hammer-on
| br   Bend release  

************************************

            
            
Suggest correction
Creating personal tab
Creating personal tab
You can edit any tab online and save it as your Personal.

You can edit, replace or remove any tab part or add personal notes – all changes will be seen only by you.

Personal tabs can be accessed anytime from any device, even offline.
Learn more »
Give kudos to tab author, rate the tab!
1 2 3 4 5
comments
print report bad tab
3 comments total.
0 reply
mystrage11 10 Apr 05, 2017 04:58 PM, edited at 09:16 pm

I think that tuning is Drop Bb, or Bb standard.
Also if you could do the chorus chords as well i would be much grateful <3
Great job mate! kudos given.

0 reply
ZeroGuitar239 10 Jun 05, 2017 08:02 AM

just saying it may be drop c since they do play that a lot and drop d. they've played a once and that was massacre

guest
You may want to rate the tab now too:
select rating
Wanna post a correction for this tab? Suggest correction