Oops, an error
Loading. Please wait.

Cellar Door Bass Tab

version 2
version 2

Whole song

Interactive

4,820 views 1 this week
2 commentsread comments
1 2 3 4 5
accurate
x 5
add to favorites
launch autoscroll
font size
0
reset
guitar tuner
Tab Pro tools
  • play this tab
  • loop segment
  • change instrument
  • show fretboard
  • metronome
Autoscroll
slow
fast
+/-
esc
set tempo
stop
Contributor
Artist: Escape the Fate.
Song: Cellar Door.
Tabbed By: Valentino [chillyt100@yahoo.com] 

[Tuning: Standard - E,A,D,G] 

I'm pretty sure this is it.

Verse One
G|--------------------------------------------|
D|--------------------------------------------|
A|-5----5----3----3----77-88-5----5----3----3-|
E|--------------------------------------------|


Pre Chorus
G|------------------------------------------------------------------|
D|------------------------------------------------------------------|
A|-11111-111111-1----------------11111-111111-1-33333-333333-333333-|
E|----------------55555-555555-5------------------------------------|


Chorus
G|-------------------------------|x2|---|
D|-------------------------------|  |---|
A|-5x12-1x12----3333333344444444-|  |-5-|
E|-----------5x12----------------|  |---|


Verse Two
G|--------------------------------------------|
D|--------------------------------------------|
A|-5----5----3----3----77-88-5----5----3----3-|
E|--------------------------------------------|


Pre Chorus
G|------------------------------------------------------------------|
D|------------------------------------------------------------------|
A|-11111-111111-1----------------11111-111111-1-33333-333333-333333-|
E|----------------55555-555555-5------------------------------------|

Chorus
G|-------------------------------|x2|---|
D|-------------------------------|  |---|
A|-5x12-1x12----3333333344444444-|  |-5-|
E|-----------5x12----------------|  |---|


Bridge 
G|-------------------------------------|
D|-------------------------------------|
A|------5---------5---------5------1--4|
E|-3---------3---------3---------3-----|



Chorus
G|-------------------------------|x4
D|-------------------------------|  
A|-5x12-1x12----3333333344444444-|  
E|-----------5x12----------------|  
comments
print report bad tab
2 comments total.
+1 reply
Narayana wrote on September 13 2007, 03:31 pm

does this sound good to you :S

0 reply
DeDperson wrote on January 29 2011, 11:21 am

I think this sounds great but I'm still really new to playing so yeah...

I want to post or [tab]
guest
You may want to rate the tab now too:
select rating
Please do not post tabs as comments. Select "correction" instead!