Oops, an error
Loading. Please wait.

Cellar Door Bass Tab

version 3
version 3

Whole song

Interactive

107 views 1 this week
no commentswrite comment
1 2 3 4 5
please rate
add to favorites
launch autoscroll
font size
0
reset
guitar tuner
Autoscroll
slow
fast
+/-
esc
set tempo
stop
Help us to improve Ultimate-Guitar.com Take our survey!
×
Author
Difficulty
Tuning
novice
C G C F A D
-------------------------------------------------------------------------------
                             Escape The Fate - Cellar Door
-------------------------------------------------------------------------------
Tabbed by: Craig Moody
E-mail: craigthebassist@hotmail.co.uk

I play a six-string bass, so there might be a few mistakes, but I've tried my
best to get the timing right and to get the notes in the right place. Play the
verses with fingers and the rest with a pick to get the right feel for the track.
If there are any problems, leave a comment of email me. If you want me to transpose
this into a different tuning, let me know. Enjoy. ;)

Tuning: Drop-C

Verse:
F|-9----9----7----7-------------9----9----7----7-|
C|-----------------------------------------------|
G|-7----7----5----5----99-1010--7----7----5----5-|
C|-----------------------------------------------|

Pre-Chorus:
F|-------------------------------------------------------------------------|
C|-------------------------------------------------------------------------|
G|-333333-3333333-3222222-2222222-2333333-3333333-3555555-5555555-5555555--|
C|-------------------------------------------------------------------------|

Chorus:
F|----------------------------------------------------------------------|
C|----------------------------------------------------------------------|
G|-7777777777777777-3333333333333333-2222222222222222-------------------|
C|----------------------------------------------------00000000-11111111-|

F|------------------------------------------------------------------------|
C|------------------------------------------------------------------------|
G|-7777777777777777-3333333333333333-2222222222222222---------------------|
C|----------------------------------------------------00000000-11111111-2-|

Verse:
F|-9----9----7----7-------------9----9----7----7-|
C|-----------------------------------------------|
G|-7----7----5----5----99-1010--7----7----5----5-|
C|-----------------------------------------------|

Pre-Chorus:
F|-------------------------------------------------------------------------|
C|-------------------------------------------------------------------------|
G|-333333-3333333-3222222-2222222-2333333-3333333-3555555-5555555-5555555--|
C|-------------------------------------------------------------------------|

Chorus:
F|----------------------------------------------------------------------|
C|----------------------------------------------------------------------|
G|-7777777777777777-3333333333333333-2222222222222222-------------------|
C|----------------------------------------------------00000000-11111111-|

F|----------------------------------------------------------------------|
C|----------------------------------------------------------------------|
G|-7777777777777777-3333333333333333-2222222222222222-------------------|
C|----------------------------------------------------00000000-11111111-|

Middle-8: 
F|---------------------------------------------------------------------|
C|---------------------------------------------------------------------|
G|-0000000000000000------------------0000000000000000------------------|
C|------------------2222222222222222------------------2222222222222222-|

F|---------------------------------------------------------------------|
C|---------------------------------------------------------------------|
G|-0000000000000000------------------0000000000000000-2222222266666666-|
C|------------------2222222222222222-----------------------------------|

Chorus:
F|----------------------------------------------------------------------|
C|----------------------------------------------------------------------|
G|-7777777777777777-3333333333333333-2222222222222222-------------------|
C|----------------------------------------------------00000000-11111111-|

F|----------------------------------------------------------------------|
C|----------------------------------------------------------------------|
G|-7777777777777777-3333333333333333-2222222222222222-------------------|
C|----------------------------------------------------00000000-11111111-|

Chorus Extension:
F|----------------------------------------------------------------------|
C|----------------------------------------------------------------------|
G|-7777777777777777-3333333333333333-2222222222222222-55555555-66666666-|
C|----------------------------------------------------------------------|

F|----------------------------------------------------------------------|
C|----------------------------------------------------------------------|
G|-7777777777777777-3333333333333333-2222222222222222-55555555-66666666-|
C|----------------------------------------------------------------------|

Final note:
F|-----|
C|-----|
G|-----|
C|--2--|
Suggest correction
Give kudos to tab author, rate the tab!
1 2 3 4 5
comments
print report bad tab
guest
You may want to rate the tab now too:
select rating
Please do not post tabs as comments. Select "correction" instead!