Oops, an error
Loading. Please wait.

Cellar Door Tab

version 3
version 3

Whole song

Interactive

11,606 views 1 this week
no commentswrite comment
1 2 3 4 5
accurate
x 7
add to favorites
launch autoscroll
font size
0
reset
how to read this tab
guitar tuner
Tab Pro tools
  • play this tab
  • loop segment
  • change instrument
  • show fretboard
  • metronome
×
Best way to learn
"Cellar Door"
Autoscroll
slow
fast
+/-
esc
set tempo
stop
Contributor
If the tab is messed up, copy/paste it into Notepad with Courier New Font Size 10

Verse:
Clean (The 4 on the F string may be a 2, I'm not sure, mess around with them, because 
not right, and I know it, but it's hard to figure out):

D|------2h3-3-------2h3-3-|  |------2h3-3----2h3-3-|
A|------------------------|  |---------------------|
F|----4------4-----4------|  |----0-------0--------|
C|--2----------2-2--------|  |--0-----------0------|
G|------------------------|x2|---------------------|x2
C|------------------------|  |---------------------|

Pre-chorus: (Now we are staring - As You...)
Guitar 1
D|----------------------------------------|
A|----------------------------------------|
F|----------------------------------------|
C|-55555555-444444444-555555555-777777777-| x4
G|-33333333-222222222-333333333-555555555-|
C|----------------------------------------|


Guitar 2
D|-------15-15--14-14--17-17-|   D|-------15-15--14-14-17~17b-17b-17b-17b-----|
A|-17-17---------------------|   A|-17-17-------------------------------------|
F|---------------------------|   F|-------------------------------------------|
C|---------------------------|   C|-------------------------------------------|
G|---------------------------|x3 G|-------------------------------------------|

C|---------------------------|   C|-------------------------------------------|


Chorus:
Guitar 1 & 2
D|-----------------------------------|------------------------------------|  |----|
A|-----------------------------------|------------------------------------|  |----|
F|-----------------------------------|---------------------------88888888-|  |----|
C|-9999999999999999-5555555555555555-|-4444444444444444-77777777----------|  |-2~-|
G|-7777777777777777-3333333333333333-|-2222222222222222-55555555-66666666-|x2|-2~-|
C|-----------------------------------|------------------------------------|  |-2~-|


Verse:

D|------2h3-3-------2h3-3-|  |------2h3-3----2h3-3-|
A|------------------------|  |---------------------|
F|----4------4-----4------|  |----0-------0--------|
C|--2----------2-2--------|  |--0-----------0------|
G|------------------------|x2|---------------------|x2
C|------------------------|  |---------------------|

Pre-chorus: (Now we are staring - As You...)
Guitar 1
D|----------------------------------------|
A|----------------------------------------|
F|----------------------------------------|
C|-55555555-444444444-555555555-777777777-| x4
G|-33333333-222222222-333333333-555555555-|
C|----------------------------------------|


Guitar 2
D|-------15-15--14-14--17-17-|   D|-------15-15--14-14-17~17b-17b-17b-17b-----|
A|-17-17---------------------|   A|-17-17-------------------------------------|
F|---------------------------|   F|-------------------------------------------|
C|---------------------------|   C|-------------------------------------------|
G|---------------------------|x3 G|-------------------------------------------|

C|---------------------------|   C|-------------------------------------------|


Chorus:
Guitar 1 & 2
D|-----------------------------------|------------------------------------|  |----|
A|-----------------------------------|------------------------------------|  |----|
F|-----------------------------------|---------------------------88888888-|  |----|
C|-9999999999999999-5555555555555555-|-4444444444444444-77777777----------|  |-2~-|
G|-7777777777777777-3333333333333333-|-2222222222222222-55555555-66666666-|x2|-2~-|
C|-----------------------------------|------------------------------------|  |-2~-|

Bridge:
Guitar 1
D|-------------------|  |----------------------------|
A|-------------------|  |----------------------------|
F|-------------------|  |----------------------------|
C|-77777777-99999999-|  |-77777777-44444444-77777777-|
G|-77777777-77777777-|x4|-77777777-22222222-55555555-|
C|-77777777----------|  |-77777777-------------------|

Guitar 2
D|-15p14----------15p14----15/17~----------|
A|-------15--12~--------15-----------------|
F|-----------------------------------------|
C|-----------------------------------------|
G|-----------------------------------------|x5
C|-----------------------------------------|

Chorus:
Guitar 1
D|-----------------------------------|------------------------------------|       |----|
A|-----------------------------------|------------------------------------|       |----|
F|-----------------------------------|---------------------------88888888-|       |----|
C|-9999999999999999-5555555555555555-|-4444444444444444-77777777----------|       |-2~-|
G|-7777777777777777-3333333333333333-|-2222222222222222-55555555-66666666-|x alot |-2~-|
C|-----------------------------------|------------------------------------| end on|-2~-|

Guitar 2 (2nd time of the Chorus, and throughout the "It's so wrong")
D|----------------|  |----------|--------------|
A|----------------|  |----------|--------------|
F|----------14-16-|  |-14-------|--------------|
C|-14-16-17-------|  |----17-16-|-16b17r16-14~-|
G|----------------|x3|----------|--------------|
C|----------------|  |----------|--------------|
comments
print report bad tab
I want to post or [tab]
guest
You may want to rate the tab now too:
select rating
Please do not post tabs as comments. Select "correction" instead!