Oops, an error
Loading. Please wait.

City Of Sin Bass Tab

version 1
version 1

Whole song

Interactive

3,277 views 3 this week
no commentswrite comment
1 2 3 4 5
excellent!
x 4
add to favorites
launch autoscroll
font size
0
reset
guitar tuner
Autoscroll
slow
fast
+/-
esc
set tempo
stop
Help us to improve Ultimate-Guitar.com Take our survey!
×
Author
Tuning
C G C F A D
-------------------------------------------------------------------------------
			     CITY OF SIN - Escape The Fate
-------------------------------------------------------------------------------



Tabbed By : mariewong.





Tuning: Drop C.





Intro [0:14]

F|-------------------------|
C|-------------------------|
G|-------------------------|
C|--444-77-44-99-44-66-33--|

F|-------------------------|
C|-------------------------|
G|-------------------------|
C|--444-77-44-99-44-66-33--|



Verse [00:22]

F|-------------------------|
C|-------------------------|
G|-------------------------|
C|--444-77-44-99-44-66-33--|

F|------------------------------|
C|------------------------------|
G|------------------------------|
C|--16\--444-77-44-99-44-66-33--|



Pre-chorus [00:37]

F|--------------------|
C|--------------------|
G|--------------------|
C|--0~-000--2~-7-6-2--|

F|--------------------|
C|--------------------|
G|--------------------|
C|--0~-000--33333333--|



Chorus [00:45]

F|-----------------------|
C|-----------------------|
G|-----------------------|
C|--444-77-44-900-0-222--|

F|-----------------------|
C|-----------------------|
G|-----------------------|
C|--444-77-44-900-0-222--|

F|-----------------------------------|
C|-----------------------------------|
G|-----------------------22444444-5--|
C|--444-77-44-900-0-222--------------|



Post-chorus [01:01]

F|-------------------------|
C|-------------------------|
G|-------------------------|
C|--444-77-44-99-44-66-33--|

F|-------------------------|
C|-------------------------|
G|-------------------------|
C|--444-77-44-99-44-66-33--|



Verse [01:08]

F|-------------------------|
C|-------------------------|
G|-------------------------|
C|--444-77-44-99-44-66-33--|

F|------------------------------|
C|------------------------------|
G|------------------------------|
C|--16\--444-77-44-99-44-66-33--|



Pre-chorus [01:24]

F|--------------------|
C|--------------------|
G|--------------------|
C|--0~-000--2~-7-6-2--|

F|--------------------|
C|--------------------|
G|--------------------|
C|--0~-000--33333333--|



Chorus [01:32]

F|-----------------------|
C|-----------------------|
G|-----------------------|
C|--444-77-44-900-0-222--|

F|-----------------------|
C|-----------------------|
G|-----------------------|
C|--444-77-44-900-0-222--|

F|-----------------------------------|
C|-----------------------------------|
G|-----------------------22444444-5--|
C|--444-77-44-900-0-222--------------|



Bridge/Solo [01:47]

F|------------------------------|
C|------------------------------|
G|------------------------------|
C|--4~-44-77-44~----444-77-44~--|

F|-----------------------|
C|-----------------------|
G|-----------------------|
C|--444-77-44-900-0-222--|

F|-----------------------|
C|-----------------------|
G|-----------------------|
C|--444-77-44-900-0-222--|

F|------------------------------------|
C|------------------------------------|
G|-----------------------44444444-55--|
C|--444-77-44-900-0-222---------------|



Break [02:10]

F|------|
C|------|
G|------|
C|--4\--|



Chorus [02:19]

F|-----------------------|
C|-----------------------|
G|-----------------------|
C|--444-77-44-900-0-222--|

F|-----------------------|
C|-----------------------|
G|-----------------------|
C|--444-77-44-900-0-222--|

F|-----------------------------------|
C|-----------------------------------|
G|-----------------------22444444-5--|
C|--444-77-44-900-0-222--------------|

F|-------------------|
C|-------------------|
G|-------------------|
C|--4~--4~--3-6-7-4--|





| /  slide up
| \  slide down
| h  hammer-on
| p  pull-off
| ~  vibrato
| +  harmonic
| x  Mute note
===============================================================================
Suggest correction
comments
print report bad tab
guest
You may want to rate the tab now too:
select rating
Wanna post a correction for this tab? Suggest correction