Oops, an error
Loading. Please wait.

City Of Sin Tab

version 1
version 1

Whole song

Interactive

6,496 views 1 this week
1 commentread comment
1 2 3 4 5
1 last vote to show rating
add to favorites
launch autoscroll
font size
0
reset
how to read this tab
guitar tuner
Autoscroll
slow
fast
+/-
esc
set tempo
stop
Help us to improve Ultimate-Guitar.com Take our survey!
×
Author
Difficulty
Tuning
intermediate
C G C F A D
Escape The Fate - City Of Sin

Tuning : *Drop C*

Key : - /// = Slide 
      - d   = Dive
      - w   = Whammy
      - X   = Dead Note
      - b   = Bend
      - rb  = Release Bend
      - h   = Hammer-On
      - p   = Pull-Off
      - *   = Palm Mute
      - {_} = Artificial Harmonic

Intro  (0:06-0:20) : 

Lead (0:06) :
D|-----------------------|
A|-----------------------|
F|-----------------------|
C|-----------------------|
G|----------4------------|         X1
C|-4--7--4-----4--7--3-3-|


Rhythm (0:10) :
D|-----------------------|
A|-----------------------|
F|-----------------------|
C|-----------------------|
G|----------4------------|         X1
C|-4--7--4-----4--7--3-3-|
                     ^ ^
Turn down the volume a little bit if you can when you play these 2 notes


Lead (0:10) :
D|-------------------------|
A|-------------------------|
F|----------18-------------|        X1
C|-16-19-16----16-18-15-15-|
G|-------------------------|
C|-------------------------|


Lead (0:14) :
D|-------------------------|
A|-------------------------|
F|----------18-------------|        X1
C|-16-19-16----16-18-15-15-|
G|-------------------------|
C|-------------------------|

Rhythm (0:14) :
D|-------------------------|
A|-------------------------|
F|----------18-------------|        X1
C|-16-19-16----16-18-15-15-|
G|-------------------------|
C|-------------------------|



Verse 1 (0:21-0:36) :

Lead (0:21) : 
D|-------------------------|
A|-------------------------|
F|----------18-------------|
C|-16-19-16----16-18-15-15-|
G|-------------------------|
C|-------------------------|

D|-----------------------------|
A|-----------------------------|
F|--------------18-------------|
C|-///-16-19-16----16-18-15-15-|
G|-///-------------------------|
C|-///-------------------------|


Pre-Chorus (0:37-0:44) :

Lead (0:37) : 
D|-----------------------------------------|
A|-----------------------------------------|
F|------------------5-4-----7-5-3----------|
C|-----12-10-8-10-2-----5-2--------XXXXXXX-|
G|---------------------------------XXXXXXX-|
C|-14------------------------------XXXXXXX-|


Chorus (0:45-1:00) :

Rhythm (0:45)
D|--------------------------------------------------------------------------|
A|--------------------------------------------------------------------------|
F|--------------------------------------------------------------------------|
C|-4--4-7-4--2--2-2-4--4--4-7-4--2--2-2-{4}---4--4-7-4--2--2-2-4-3-2222222-3|
G|-4--4-7-4--2--2-2-4--4--4-7-4--2--2-2-------4--4-7-4--2--2-2-4-3-2222222-3|
C|-4--4-7-4--2--2-2-4--4--4-7-4--2--2-2-------4--4-7-4--2--2-2-4-3-2222222-3|
                                                                   *******



Post-Chorus (1:01-1:07) :

Lead (1:01) :
D|-------------------------|
A|-------------------------|
F|----------18-------------|        X2
C|-16-19-16----16-18-15-15-|
G|-------------------------|
C|-------------------------|


Verse 2 (1:08-1:22) :

Lead (1:08) :
D|-------------------------|
A|-------------------------|
F|----------18-------------|       
C|-16-19-16----16-18-15-15-|
G|-------------------------|
C|-------------------------|

D|-----------------------------|
A|-----------------------------|
F|--------------18-------------|
C|-///-16-19-16----16-18-15-15-|
G|-///-------------------------|
C|-///-------------------------|


Pre-Chorus (1:23-1:30) :
Lead (1:23) : 
D|-----------------------------------------|
A|-----------------------------------------|
F|------------------5-4-----7-5-3----------|
C|-----12-10-8-10-2-----5-2--------XXXXXXX-|
G|---------------------------------XXXXXXX-|
C|-14------------------------------XXXXXXX-|


Chorus (1:31-1:45) :

Rhythm (1:31)
D|--------------------------------------------------------------------------|
A|--------------------------------------------------------------------------|
F|--------------------------------------------------------------------------|
C|-4--4-7-4--2--2-2-4--4--4-7-4--2--2-2-{4}---4--4-7-4--2--2-2-4-3-2222222-3|
G|-4--4-7-4--2--2-2-4--4--4-7-4--2--2-2-------4--4-7-4--2--2-2-4-3-2222222-3|
C|-4--4-7-4--2--2-2-4--4--4-7-4--2--2-2-------4--4-7-4--2--2-2-4-3-2222222-3|
                                                                   *******


Pre-Solo (1:46-1:53) :

Lead (1:46) :
D|-----------------------|
A|------------19d--------|
F|-----19w~~~------------|
C|-16d-------------------|
G|-----------------------|
C|----------------7h9-4d-|


Solo (1:54-2:09) :

Lead (1:54)
D|--------------------------------------------|
A|-----------------22-21-19-------------------|
F|----------16h18-----------21-19-------------|
C|-16-18-19-----------------------22-19h21b22-|
G|--------------------------------------------|
C|--------------------------------------------|

D|--------------------------------------------------|
A|-----------------14-16-14-16-17-18b20-18p17p16h17-|
F|---------14-16-17---------------------------------|
C|-14-16-17-----------------------------------------|
G|--------------------------------------------------|
C|--------------------------------------------------|

D|--------------------------------------|
A|------19--19-19b21-19b21-17-19--22-21-|
F|------------------------------18------|
C|--------------------------------------|
G|--------------------------------------|
C|--------------------------------------|

D|--------------------------------------------|
A|-22-21-19--------------------------------19-|
F|---------21-19-18---------18-19-21-19-21----|
C|-----------------21-19-21-------------------|
G|--------------------------------------------|
C|--------------------------------------------|

Rhythm (1:54) :

D|--------------------------------------------------------------------------|
A|--------------------------------------------------------------------------|
F|--------------------------------------------------------------------------|
C|-4--4-7-4--2--2-2-4--4--4-7-4--2--2-2-{4}---4--4-7-4--2--2-2-4-3-2222222-3|
G|-4--4-7-4--2--2-2-4--4--4-7-4--2--2-2-------4--4-7-4--2--2-2-4-3-2222222-3|
C|-4--4-7-4--2--2-2-4--4--4-7-4--2--2-2-------4--4-7-4--2--2-2-4-3-2222222-3|
                                                                   *******

Rythm (2:10) :
E|--------------------------------|
B|--------------------------------|
G|--------------------------------|
D|--------------------------------|
A|-21-20-21-20-21--21-20-21-20-21-|
D|--------------------------------|


Chorus (2:17-2:32)

Rhythm (2:17)
D|--------------------------------------------------------------------------|
A|--------------------------------------------------------------------------|
F|--------------------------------------------------------------------------|
C|-4--4-7-4--2--2-2-4--4--4-7-4--2--2-2-{4}---4--4-7-4--2--2-2-4-3-2222222-3|
G|-4--4-7-4--2--2-2-4--4--4-7-4--2--2-2-------4--4-7-4--2--2-2-4-3-2222222-3|
C|-4--4-7-4--2--2-2-4--4--4-7-4--2--2-2-------4--4-7-4--2--2-2-4-3-2222222-3|
                                                                   *******


Outro (2:33-2:41) :

Lead (2:33) :
D|---------------------------------------------------|
A|---------------------------------------------------|
F|---------------------------------------------------|
C|---------------------------------------------------|
G|-21-20-21-20-21-20-21--21-20-21-20-21--20-20-23-21-|
C|---------------------------------------------------|


Actually, Bryan is playing on a 7 strings guitar (Ibanez RGD2127Z Prestige)on the new record.

The link for my cover of the song on YouTube : 
http://www.youtube.com/watch?v=0mSCDiaoNUY
And my profile link : 
http://www.youtube.com/user/AlexIbanez16

Long Life To Post-Hardcore !

AlexIbanez16
Suggest correction
Give kudos to tab author, rate the tab!
1 2 3 4 5
comments
print report bad tab
1 comment total.
0 reply
hereticfive 31 Dec 13, 2010 12:37 PM

I've never known etf to ever play in drop d....

guest
You may want to rate the tab now too:
select rating
Wanna post a correction for this tab? Suggest correction