Oops, an error
Loading. Please wait.

City Of Sin Tab

version 2
version 2

Whole song

Interactive

649 views 1 this week
2 commentsread comments
1 2 3 4 5
2 more votes to show rating
add to favorites
launch autoscroll
font size
0
reset
how to read this tab
guitar tuner
Autoscroll
slow
fast
+/-
esc
set tempo
stop
Help us to improve Ultimate-Guitar.com Take our survey!
×
Author
Difficulty
Tuning
novice
C G C F A D
-------------------------------------------------------------------------------
                             CITY OF SIN - Escape The Fate
-------------------------------------------------------------------------------
Tabbed by: Samholmes96
Email: samholmes96@hotmail.co.uk

Tuning: Drop C  (CGCFAD)

Great new album, was listening to this for ages and i got the hang of the main riff, and
a little pre-chorus. :) AWESOME SONG THOUGH :D

----------------------------------------------------------------------------


This is the Main Riff, Throughout the song...

D|-----------------------------------------------------------------------------|
A|-----------------------------------------------------------------------------|
F|----11-11-11---14-14------11-11------16-16------11-11------13-13-------------|
C|----x--x--x----x--x-------x--x-------x--x-------x--x-------x--x--------------|
G|----9--9--9----12-12------9--9-------14-14------9--9-------10-10-------------|
C|-----------------------------------------------------------------------------|

''Come on, come on. Shake your money maker''...

D|------------|--------------------------------------------------------------|
A|------------|--------------------------------------------------------------|
F|---10-10----|--------------------------------------------------------------|
C|---x--x-----|----------------X4--------------------------------------------|
G|---8--8-----|--------------------------------------------------------------|
C|------------|--------------------------------------------------------------|

''Double down another round. everybody wears a crown, waste of space on ma' face heading
into outa' space.''


D|---------------------------------------------------------------------------|
A|---------------------------------------------------------------------------|
F|---------------------------------------------------------------------------|
C|-------11-12--9~----------9--11-7~-----------11-12--9~-----------9--11-7~--|
G|---9-----------------9-----------------9------------------9----------------|
C|---------------------------------------------------------------------------|

Repeat Main riff a few times, as many as you hear,  So sorry i couldnt figure out the
solo, Bryan is immense, and was too quick for me :L, but yea, i checked out the other
tab(s) of , City of sin, and they said Drop D, and i was like WTF? Escape the fate have 
used drop c, for their self titled album, and i looked at the tab, not much use, so i made
one. :D  (no offence to the guy tht made it), i was 14 when i made this tab :)

************************************

| /   slide up
| \   slide down
| h   hammer-on
| p   pull-off
| ~   vibrato
| +   harmonic
| x   Mute note
| b   Bend
| pb  Pre-bend
| br  Bend release
| pbr Pre-bend release
| brb Bend release bend

************************************
Suggest correction
Give kudos to tab author, rate the tab!
1 2 3 4 5
comments
print report bad tab
2 comments total.
0 reply
AlexIbanez16 83 Feb 01, 2011 12:45 PM

Good tab.
I'm very sorry and I know ETF play the song in drop c, but forgive me, it's how I play the song so I've transcribed the tab like this. Sorry Escape The Fate to change your tuning ! ^^

0 reply
samholmes96 90 Mar 04, 2011 05:36 PM

fair do's mate :P

guest
You may want to rate the tab now too:
select rating
Wanna post a correction for this tab? Suggest correction