Oops, an error
Loading. Please wait.

Day Of Wreckoning Bass Tab

version 1
version 1

Whole song

Interactive

1,817 views 6 this week
no commentswrite comment
1 2 3 4 5
excellent!
x 4
add to favorites
launch autoscroll
font size
0
reset
guitar tuner
Tab Pro tools
  • play this tab
  • loop segment
  • change instrument
  • show fretboard
  • metronome
×
Best way to learn
"Day Of Wreckoning"
Autoscroll
slow
fast
+/-
esc
set tempo
stop
Contributor
Tuning
C G C F A D
-------------------------------------------------------------------------------
			     DAY OF WRECKONING - Escape The Fate
-------------------------------------------------------------------------------



Tabbed By : mariewong.



Tuning: Drop C.





Intro [0:00]

F|------------------|
C|------------------|
G|------------------|
C|--0~--0~--0~--0~--|

F|---------------------|
C|---------------------|
G|---------------------|
C|--0-0-3-0-5-0-5-8-7--|

F|----------------------|
C|----------------------|
G|----------------------|
C|--0-0-3-0-5-0-5-8575--|

F|---------------------|
C|---------------------|
G|---------------------|
C|--0-0-3-0-5-0-5-8-7--|

F|----------------------|
C|----------------------|
G|----------------------|
C|--0-0-3-0-5-0-5-857~--|



Verse [00:28]

F|----------------------------------|
C|----------------------------------|
G|----------------------------------|     [x2]
C|--0--0--0-5-8-7----0--0--0-58575--|



Pre-chorus [00:42]

F|------------------------------------------------------------|
C|------------------------------------------------------------|
G|------------------------------------------------------------|
C|--12-12-12121212----10-10-10101010----99999999----8-8-8888--|



Chorus [00:46]

F|-------------------------------------------|
C|-------------------------------------------|
G|------------0-00-000--1-11-111-------------|     [x2]
C|--0-00-000----------------------3333-2222--|



Post-chorus [01:00]

F|-------------------------|
C|-------------------------|
G|-------------------------|
C|--0~--0~--0~--0~--58575--|



Verse [01:07]

F|----------------------------------|
C|----------------------------------|
G|----------------------------------|     [x2]
C|--0--0--0-5-8-7----0--0--0-58575--|



Pre-chorus [01:20]

F|------------------------------------------------------------|
C|------------------------------------------------------------|
G|------------------------------------------------------------|
C|--12-12-12121212----10-10-10101010----99999999----8-8-8888--|



Chorus [01:24]

F|-------------------------------------------|
C|-------------------------------------------|
G|------------0-00-000--1-11-111-------------|     [x4]
C|--0-00-000----------------------3333-2222--|

F|------------------|
C|------------------|
G|------------------|
C|--0~--0~--0(x64)--|



Bridge [02:06]

F|-----------------------|
C|-----------------------|
G|-----------------------|     [x7]
C|--000-0-0-000--8-7777--|

F|-----------------------|
C|-----------------------|
G|--5555-3333-2222-1111--|
C|-----------------------|



Chorus [02:34]

F|-------------------------------------------|
C|-------------------------------------------|
G|------------0-00-000--1-11-111-------------|     [x4]
C|--0-00-000----------------------3333-2222--|

F|-----------------------|
C|-----------------------|
G|-----------------------|     [x3]
C|--000-0-0-000--8-7777--|

F|---------------|
C|---------------|
G|---------------|
C|--000-0-0-000--|





| /  slide up
| \  slide down
| h  hammer-on
| p  pull-off
| ~  vibrato
| +  harmonic
| x  Mute note
===============================================================================
comments
print report bad tab
I want to post or [tab]
guest
You may want to rate the tab now too:
select rating
Please do not post tabs as comments. Select "correction" instead!