Oops, an error
Loading. Please wait.

Day Of Wreckoning Tab

version 1
version 1

Intro

Whole song

Interactive

4,578 views 3 this week
no commentswrite comment
1 2 3 4 5
1 last vote to show rating
add to favorites
launch autoscroll
font size
0
reset
how to read this tab
guitar tuner
Autoscroll
slow
fast
+/-
esc
set tempo
stop
Help us to improve Ultimate-Guitar.com Take our survey!
×
Author
|--------------------------------------------------|
|-----------------8------------11~-10~-------------|
|-7---7-10---7--------7-----7~-7~--7~--------------|
|--00-----00---00--00---0-0-------0----------------|
|--------------------------------------------------|
|--------------------------------------------------|
   ..     ..   ..  ..   .   .       .
|--------------------------------------------------------|
|-------------------8---------1111111-10~----------------|
|7----7-10---7--------7-------7-7-7---7~-----------------|
|--00------00---00--00--0-0------------------------------|
|--------------------------------------------------------|
|--------------------------------------------------------|    x2
   ..     ..   ..  ..   .   .
|-------------------------||-------------------------|
|-------------------------||-------------------------|
|-------------------------||-------------------------|
|-------------------------||-------------------------|
|-------------------------||-------------------------|
|0-00-0-3-00-0-00-5-00-0-0||0-5s8-7~-----------------|
 . .. .   .. . ..   .. . .  .
|-------------------------||-------------------------|
|-------------------------||-------------------------|
|-------------------------||-------------------------|
|-------------------------||-------------------------|
|-------------------------||-------------------------|
|0-00-0-3-00-0-00-5-00-0-0||0-5-8-5-7-5--------------|
 . .. .   .. . ..   .. . .  . . . . . .
|-------------------------||-------------------------|
|-------------------------||-------------------------|
|-------------------------||-------------------------|
|-------------------------||-------------------------|
|-------------------------||-------------------------|
|0-00-0-3-00-0-00-5-00-0-0||0-5s8-7~-----------------|
 . .. .   .. . ..   .. . .  .
|-------------------------||-------------------------|
|-------------------------||-------------------------|
|-------------------------||-------------------------|
|-----------------5-55-555||5-3-3---3~---------------|
|5-55-5-7-77-7-77---------||-------------------------|
|-------------------------||-------------------------|


my first tab:) :D Drop C tuning " . "=palm mute notes
Suggest correction
Give kudos to tab author, rate the tab!
1 2 3 4 5
comments
print report bad tab
guest
You may want to rate the tab now too:
select rating
Wanna post a correction for this tab? Suggest correction