Oops, an error
Loading. Please wait.

Dragging Daed Bodies In Blue Bags Up Really Long Hills Bass Tab

3,833 views 1 this week
3 commentsread comments
1 2 3 4 5
please rate
add to favorites
launch autoscroll
font size
0
reset
guitar tuner
Tab Pro tools
  • play this tab
  • loop segment
  • change instrument
  • show fretboard
  • metronome
×
Best way to learn
"Dragging Daed Bodies In Blue Bags Up Really Long Hills"
Autoscroll
slow
fast
+/-
esc
set tempo
stop
Contributor
Dragging dead bodies in blue bags up really long hills
Escape the fate
Tabbed by: Synysterblack
-Intro-
F|--------------------------------------------------------------------|
C|---------------------------1010------------------88-7---------------|
G|---88-77-1010-88-7-8--88-77----88-7-8--88-77-1010----8--88-77-------|
C|-00----------------------------------------------------------00~----|

-Pre-verse-
F|------------------|
C|------------------|
G|------------------|
C|-0-----00---8/----|

-Verse-
F|-------------------------------------------------------------------------------|
C|-------------------------------------------8-----------------------------------|
G|---------------------------------8-10~-8-10-8----------------------------------|
C|-88888888888877771010101010101010------------00000-00-00-00000000-00-00-0000---|

F|-------------------------------------------------------------------------------|
C|-------------------------------------------8-----------------------------------|
G|---------------------------------8-10~-8-10-8----------------------------------|
C|-88888888888877771010101010101010------------00000-00-00-00000000-00-00-0000---|

F|------------------------------------------------|
C|------------------------------------------------|
G|------------------------------------------------|
C|-88888888888877771010101010101010-8-1010-8-10---|

-Chorus-
F|---------------------------------------------|
C|---------------------------------------------|
G|-----888-------------------------------------|
C|-0-00---8-88-8888-1010101010101010-333-555---|

F|---------------------------------------------|
C|---------------------------------------------|
G|-----888-------------------------------------|
C|-0-00---8-88-8888-1010101010101010-333-555---|

F|---------------------------------------------|
C|---------------------------------------------|
G|-----888-------------------------------------|
C|-0-00---8-88-8888-1010101010101010-333-555---|

F|---------------------------------------------------------------------|
C|---------------------------------------------------------------------|
G|-----888-------------------------------------------------------------|
C|-0-00---8-88-8888-10101010101010101010101010101010-88888888-10-8-8-7-|

-Pre-verse 2-
F|------------------------------------------------------------------|
C|------------------------------------------------------------------|
G|------------------------------------------------------------------|
C|-00000-00-00-00--00000-00-00-00--00000-00-00-00--00000-00-00-00---|

-Verse 2-
F|-------------------------------------------------------------------------------|
C|-------------------------------------------8-----------------------------------|
G|---------------------------------8-10~-8-10-8----------------------------------|
C|-88888888888877771010101010101010------------00000-00-00-00000000-00-00-0000---|

F|-------------------------------------------------------------------------------|
C|-------------------------------------------8-----------------------------------|
G|---------------------------------8-10~-8-10-8----------------------------------|
C|-88888888888877771010101010101010------------00000-00-00-00000000-00-00-0000---|

F|------------------------------------|
C|------------------------------------|
G|------------------------------------|
C|-88888888888877771010-8-1010-8-10---|

-Chorus 2- 
F|---------------------------------------------|
C|---------------------------------------------|
G|-----888-------------------------------------|
C|-0-00---8-88-8888-1010101010101010-333-555---|

F|---------------------------------------------|
C|---------------------------------------------|
G|-----888-------------------------------------|
C|-0-00---8-88-8888-1010101010101010-333-555---|

F|---------------------------------------------|
C|---------------------------------------------|
G|-----888-------------------------------------|
C|-0-00---8-88-8888-1010101010101010-333-555---|

F|-----------------------------------------------------------------------|
C|-----------------------------------------------------------------------|
G|-----888---------------------------------------------------------------|
C|-0-00---8-88-8888-10101010101010101010101010101010-88888888-10-8-8-7-0-|

-Break- 
F|-----------|
C|-----------|
G|-----------|
C|-----------|

-Bridge- 
F|----------------------------------------------------------|
C|----------------------------------------------------------|
G|-----------88-8--88-8--77-7--77-7--88-8--88-8--77-7--77-7-|
C|-0-0-0-0-00----00----77----77----88----88----77----77-----|

F|--------------------------------------------------|
C|--------------------------------------------------|
G|---88-8--88-8--77-7--77-7--88-8--88-8--77-7-------|
C|-00----00----77----77----88----88----77----777777-|

-Solo-
F|-----------------------------------------------|
C|-----------------------------------------------|
G|------------------7777-8888-10101010-12121212--|
C|-0000000000000000------------------------------|
F|-----------------------------------------------|
C|-----------------------------------------------|
G|-----------------------------------------------|
C|-0000000000000000-88888888-1010101010101010----|

F|-----------------------------------------------|
C|-----------------------------------------------|
G|------------------7777-8888-10101010-12121212--|
C|-0000000000000000------------------------------|

F|------------------------------------------------|
C|------------------------------------------------|
G|------------------------------------------------|
C|-0000000000000000-88888888-1010101010101010-0~--|

-Pre-chorus 3- 
F|--------------------------|
C|--------------------------|
G|--------------------------|
C|-8~101010101010-333-555---|

-Chorus 3-
F|---------------------------------------------|
C|---------------------------------------------|
G|-----888-------------------------------------|
C|-0-00---8-88-8888-1010101010101010-333-555---|

F|---------------------------------------------|
C|---------------------------------------------|
G|-----888-------------------------------------|
C|-0-00---8-88-8888-1010101010101010-333-555---|

F|---------------------------------------------|
C|---------------------------------------------|
G|-----888-------------------------------------|
C|-0-00---8-88-8888-1010101010101010-333-555---|

F|---------------------------------------------|
C|---------------------------------------------|
G|-----888-------------------------------------|
C|-0-00---8-88-8888-1010101010101010-333-555---|

F|-------------------------------------------------------------------------------|
C|-------------------------------------------------------------------------------|
G|-----888-----------------------------------------------------------------------|
C|-0-00---8-88-8888-10101010101010101010101010101010-88888888-101010101010101010-|

-End- 
F|---------------------------------------------------------------|
C|---------------------------------------------------------------|
G|---------------------------------------------------------------|
C|-00000-00-00-000000000-00-00-000000000-00-00-000000000-3-3-3-0-|
comments
We did not receive enough feedback on this tab! Please rate:
print report bad tab
1 2 3 4 5
3 comments total.
0 reply
andres1 wrote on May 3 2009, 05:16 pm

aww man you got the name wrong!!!!

+1 reply
synysterblack wrote on May 3 2009, 07:00 pm

oh **** that lol i spelt dead wrong shit

0 reply
jammyrat wrote on February 23 2010, 04:56 pm

Shame you spelt it wrong, more or less perfect though 5 stars :)

I want to post or [tab]
guest
You may want to rate the tab now too:
select rating
Please do not post tabs as comments. Select "correction" instead!