Oops, an error
Loading. Please wait.

Dragging Dead Bodies In Blue Bags Up Really Long Hills Bass Tab

version 1
version 1

Whole song

Interactive

1,153 views 1 this week
1 commentread comment
1 2 3 4 5
2 more votes to show rating
add to favorites
launch autoscroll
font size
0
reset
guitar tuner
Autoscroll
slow
fast
+/-
esc
set tempo
stop
Help us to improve Ultimate-Guitar.com Take our survey!
×
Author
Difficulty
Tuning
intermediate
C G C F A D
Dragging dead bodies in blue bags up really long hills BASS TABS
Escape the fate
Tabbed by: MrJakeSauce

Drop C

-Intro-
(My version starts with drums and guitar)

F|----------------------------------------|
C|----------------------------------------|
G|----------------------------------------|
C|--1212-1212-00-00-0-0-88-88-77-77-7-7---|x2


F|--------------------------------------------------------------------|
C|---------------------------1010------------------88-7---------------|
G|---88-77-1010-88-7-8--88-77----88-7-8--88-77-1010----8--88-77-------|
C|-------------------------------------------------------------70~----|

-Pre-verse-
F|------------------|
C|------------------|
G|------------------|
C|-0-----00---12/8---|

-Verse-
F|-----------------------------------------------------------------------------------|
C|-----------------------------------------------------------------------------------|
G|----------0808-10-12----------------0808-10-5--------------------------------------|
C|-88888888-----------1010101010101010----------00000-00-00-00000000-00-00-0000-12/8-|

F|-----------------------------------------------------------------------------------|
C|-----------------------------------------------------------------------------------|
G|----------0808-10-12----------------0808-10-5--------------------------------------|
C|-88888888-----------1010101010101010----------00000-00-00-00000000-00-00-0000-12/8-|

F|--------------------------------------------------------|
C|--------------------------------------------------------|
G|----------0808-10-12------------------------------------|
C|-88888888-----------101010101010-x-x-10-10-x-x-101010---|

-Chorus-
F|-----------------------------------------------|
C|-----------------------------------------------|
G|-----888---------------------------------------|
C|-0-00---8-88-8888-1010101010101010-333-555-----|

F|-----------------------------------------------|
C|-----------------------------------------------|
G|-----888---------------------------------------|
C|-0-00---8-88-8888-10-101010101010-1010xx101010-|

F|-----------------------------------------------|
C|-----------------------------------------------|
G|-----888---------------------------------------|
C|-0-00---8-88-8888-1010101010101010-333-555-----|

F|---------------------------------------------------------------------|
C|---------------------------------------------------------------------|
G|-----888-------------------------------------------------------------|
C|-0-00---8-88-8888---10101010101010101010101010---7-7777777—--33---22-|



-Pre-verse 2-
F|--------------------------------------------------------------------------------|
C|--------------------------------------------------------------------------------|
G|--------------------------------------------------------------------------------|
C|-0~--------------------------0----0~----------------------------0--------12/8---|

-Verse 2-
F|----------------------------------------------------------------------------------|
C|-----------------------------------------------------------------------------------|
G|----------0808-10-12----------------0808-10-5--------------------------------------|
C|-88888888-----------1010101010101010----------00000-00-00-00000000-00-00-0000-12/8-|

F|-----------------------------------------------------------------------------------|
C|-----------------------------------------------------------------------------------|
G|----------0808-10-12----------------0808-10-5--------------------------------------|
C|-88888888-----------1010101010101010----------00000-00-00-00000000-00-00-0000-12/8-|

F|--------------------------------------------------------|
C|--------------------------------------------------------|
G|----------0808-10-12------------------------------------|
C|-88888888-----------10------1010-x-x-10-10-x-x-101010---|

-Chorus 2- 
F|-----------------------------------------------|
C|-----------------------------------------------|
G|-----888---------------------------------------|
C|-0-00---8-88-8888-1010101010101010-333-555-----|

F|-----------------------------------------------|
C|-----------------------------------------------|
G|-----888---------------------------------------|
C|-0-00---8-88-8888-10-101010101010-1010xx101010-|

F|-----------------------------------------------|
C|-----------------------------------------------|
G|-----888---------------------------------------|
C|-0-00---8-88-8888-1010101010101010-333-555-----|

F|---------------------------------------------------------------------|
C|---------------------------------------------------------------------|
G|-----888-------------------------------------------------------------|
C|-0-00---8-88-8888---10101010101010101010101010---7-7777777—--33---22-|




-Break- 
F|-----------|
C|-----------|
G|-----------|
C|-----------|


-Bridge- 
F|----------------------------------------------------------|
C|----------------------------------------------------------|
G|-----------88---88---77---77---88---88---77---77----------|
C|-7-7-7-7-00---00---00---00---88---88---77--77-------------|

F|----------------------------------------------------------|
C|----------------------------------------------------------|
G|-----------88---88---77---77---88---88---77---77----------|
C|---------00---00---00---00---88---88---77--77----777777---|

-Solo-
F|----------------------------------------------------------------------------------|
C|----------------------------------------------------------------------------------|
G|----------------------------------------------------------------------------------|
C|-0000000000000000-333333333333333-5555555555555555-88888888101010101010101010-----|

F|----------------------------------------------------------------------------------|
C|----------------------------------------------------------------------------------|
G|----------------------------------------------------------------------------------|
C|-0000000000000000-333333333333333-5555555555555555-88888888101010101010101010-12~-|


-Pre-chorus 3- 
F|--------------------------|
C|--------------------------|
G|--------------------------|
C|-8~101010101010-333-555---|

-Chorus 3-

F|-----------------------------------------------|
C|-----------------------------------------------|
G|-----888---------------------------------------|
C|-0-00---8-88-8888-10-101010101010-1010xx101010-|

F|-----------------------------------------------|
C|-----------------------------------------------|
G|-----888---------------------------------------|
C|-0-00---8-88-8888-1010101010101010-333-555-----|

F|-----------------------------------------------|
C|-----------------------------------------------|
G|-----888---------------------------------------|
C|-0-00---8-88-8888-10-101010101010-1010xx101010-|

F|-----------------------------------------------|
C|-----------------------------------------------|
G|-----888---------------------------------------|
C|-0-00---8-88-8888-1010101010101010-333-555-----|

F|--------------------------------------------------------------------------|
C|--------------------------------------------------------------------------|
G|-----888------------------------------------------------------------------|
C|-0-00---8-88-8888---10101010101010101010101010---121212121212-1515151515--|

-End- 
F|---------------------------------------------------------------------|
C|---------------------------------------------------------------------|
G|---------------------------------------------------------------------|
C|-00000-00-00-000000000-00-00-000000000-00-00-000000000-12-12-12-12/0-|


Suggest correction
Give kudos to tab author, rate the tab!
1 2 3 4 5
comments
print report bad tab
1 comment total.
0 reply
JSNitro 31 Aug 15, 2010 02:53 PM

-Intro-
(My version starts with drums and guitar) *I did a typo before*

F|----------------------------------------------|
C|----------------------------------------------|
G|----------------------------------------------|
C|--1212-1212-00-00-0-0-88-88-1010-1010-10-10---|x2

guest
You may want to rate the tab now too:
select rating
Wanna post a correction for this tab? Suggest correction