Oops, an error
Loading. Please wait.

Friends And Alibis Bass Tab

version 1
version 1

Whole song

Interactive

3,795 views 1 this week
no commentswrite comment
1 2 3 4 5
accurate
x 4
add to favorites
launch autoscroll
font size
0
reset
guitar tuner
Tab Pro tools
  • play this tab
  • loop segment
  • change instrument
  • show fretboard
  • metronome
×
Best way to learn
"Friends And Alibis"
Autoscroll
slow
fast
+/-
esc
set tempo
stop
Contributor
Friend's And Alibis                               
Escape The Fate
Track 3



                                       E  S S S S S E  S S S S S S S  
F||-------|-------|-------|-------||---------------------------------|
C||-------|-------|-------|-------||*--------------------------------|
G||-------|-------|-------|-------||*--------------------------------|
C||-------|-------|-------|-------||---2--2-2-2-2-2-2--2-2-2-2-2-2-2-|


  E  S S S S S E  S S S S S S S    E  S S S S S E  S S S S S S S  
--------------------------------|--------------------------------|
--------------------------------|--------------------------------|
--2--2-2-2-2-2-2--2-2-2-2-2-2-2-|--3--3-3-3-3-3-3--3-3-3-3-3-3-3-|
--------------------------------|--------------------------------|


  E  S S S S S E  S S S S S S S       E  E  S S S E  S E  S S S S  
---------------------------------||-------------------------------|
--------------------------------*||*------------------------------|
--5--5-5-5-5-5-5--5-5-5-5-5-5-5-*||*--2--2--2-2-2-3--3-3--3-3-3-3-|
---------------------------------||-------------------------------|


  E  E  S S S E  S E  S S S S      E  E  S S S E  S E  S S S S  
-------------------------------||------------------------------|
------------------------------*||------------------------------|
--7--7--7-7-7-5--5-5--5-5-5-5-*||--7--7--7-7-7-5--5-5--5-5-5-5-|
-------------------------------||------------------------------|


    E.  E.  E  E.  E.  E     E.  E.  E  E.  E.  E     E.  E.  E  E.  E.  E   
|-------------------------|------------------------|------------------------|
|*------------------------|------------------------|------------------------|
|*------------------------|--2---2---2--2---2---2--|--3---3---3--3---3---3--|
|---5---5---5--5---5---5--|------------------------|------------------------|


  E.  E.  E  E.  E.  E        E  S S S S S E  S S S S S S S  
-------------------------||---------------------------------|
------------------------*||*--------------------------------|
--5---5---5--6---6---6--*||*--------------------------------|
-------------------------||---2--2-2-2-2-2-2--2-2-2-2-2-2-2-|


  E  S S S S S E  S S S S S S S    E  S S S S S E  S S S S S S S  
--------------------------------|--------------------------------|
--------------------------------|--------------------------------|
--2--2-2-2-2-2-2--2-2-2-2-2-2-2-|--3--3-3-3-3-3-3--3-3-3-3-3-3-3-|
--------------------------------|--------------------------------|


  E  S S S S S E  S S S S S S S      S S S S S S S S S S S S S S S S  
---------------------------------||----------------------------------|
--------------------------------*||----------------------------------|
--5--5-5-5-5-5-5--5-5-5-5-5-5-5-*||--------------------------------2-|
---------------------------------||--2---2---2---2---2---2---2-2-2---|


  S S S E  S S E  S S S S S S S    S S S S S S S S S S S S S S S S  
--------------------------------|----------------------------------|
--------------------------------|----------------------------------|
--L-2-2-2--2-2-2--2-2-2-2-2-2-2-|--3---3---3---3---3---3---3-3-3-5-|
--------------------------------|----------------------------------|


  S S S E  S S E  S S S S S S S      E  E  S S S E  S E  S S S S  
--------------------------------||-------------------------------|
--------------------------------||*------------------------------|
--L-5-5-5--5-5-5--5-5-5-5-5-5-5-||*--2--2--2-2-2-3--3-3--3-3-3-3-|
--------------------------------||-------------------------------|


  E  E  S S S E  S E  S S S S      E  E  S S S E  S E  S S S S  
-------------------------------||------------------------------|
------------------------------*||------------------------------|
--7--7--7-7-7-5--5-5--5-5-5-5-*||--7--7--7-7-7-5--5-5--5-5-5-5-|
-------------------------------||------------------------------|


    E.  E.  E  E.  E.  E     E.  E.  E  E.  E.  E     E.  E.  E  E.  E.  E   
|-------------------------|------------------------|------------------------|
|*------------------------|------------------------|------------------------|
|*------------------------|--2---2---2--2---2---2--|--3---3---3--3---3---3--|
|---5---5---5--5---5---5--|------------------------|------------------------|


  E.  E.  E  E.  E.  E       W                   E  E  H.            
-------------------------||-------------------|---------------------|
------------------------*||-------------------|---------------------|
--5---5---5--6---6---6--*||-------------------|---------------------|
-------------------------||--2----------------|--2------------------|


  W                   E  S S S S S S S S S S S S S S  
-------------------|---------------------------------|
-------------------|---------------------------------|
-------------------|---------------------------------|
--2----------------|--2--2-2-2-2-2-2-2-2-2-2-2-2-2-2-|


    E.  E.  E  E.  E.  E     E.  E.  E  E.  E.  E     E.  E.  E  E.  E.  E   
|-------------------------|------------------------|------------------------|
|*------------------------|------------------------|------------------------|
|*------------------------|------------------------|------------------------|
|---2---2---2--2---2---2--|--0---0---0--0---0---0--|--5---5---5--5---5---5--|


  E.  E.  E  E.  E.  E       E.  E.  E  E.  E.  E     E.  E.  E  E.  E.  E   
-------------------------||------------------------|------------------------|
------------------------*||------------------------|------------------------|
--3---3---3--6---6---6--*||--3---3---3--6---6---6--|------------------------|
-------------------------||------------------------|--2---2---2--2---2---2--|


  E.  E.  E  E.  E.  E     E.  E.  E  E.  E.  E     E.  E.  E  E.  E.  E   
------------------------|------------------------|------------------------|
------------------------|------------------------|------------------------|
------------------------|------------------------|--3---3---3--6---6---6--|
--0---0---0--0---0---0--|--5---5---5--5---5---5--|------------------------|


-----|-----|-----|-----|-----|-----|-----|-----|-----|-----|-----|
-----|-----|-----|-----|-----|-----|-----|-----|-----|-----|-----|
-----|-----|-----|-----|-----|-----|-----|-----|-----|-----|-----|
-----|-----|-----|-----|-----|-----|-----|-----|-----|-----|-----|


  Q    Q    Q    Q         E.  E.  E  E.  E.  E     E.  E.  E  E.  E.  E   
----------------------||-------------------------|------------------------|
----------------------||*------------------------|------------------------|
--2----2----3----3----||*------------------------|--2---2---2--2---2---2--|
----------------------||---5---5---5--5---5---5--|------------------------|


  E.  E.  E  E.  E.  E     E.  E.  E  E.  E.  E   3x  E.  E.  E  E.  E.  E   
------------------------|-------------------------||------------------------|
------------------------|------------------------*||------------------------|
--3---3---3--3---3---3--|--5---5---5--6---6---6--*||------------------------|
------------------------|-------------------------||--5---5---5--5---5---5--|


  E.  E.  E  E.  E.  E     E.  E.  E  E.  E.  E     E.  E.  E  E.  E.  S S  
------------------------|------------------------|-------------------------|
------------------------|------------------------|-------------------------|
--2---2---2--2---2---2--|--3---3---3--3---3---3--|--5---5---5--6---6---6---|
------------------------|------------------------|-------------------------|


  E.  E.  S S E.  E.  S S    W                   H        H         
--------------------------|-------------------|--------------------|
--------------------------|-------------------|--------------------|
--6---6---6---6---6---6---|-------------------|--------------------|
--------------------------|--5----------------|--L--------L--------|


  H        H           H        H          
--------------------|--------------------||
--------------------|--------------------||
--------------------|--------------------||
--L--------L--------|--L--------L--------||




Duration Legend
---------------
W - whole
H - half
Q - quarter
E - 8th
S - 16th
T - 32nd
X - 64th
. - note dotted
|-n-|  - n-tuplets


Tablature Legend
----------------
L - tied note
x - dead note
g - grace note
(n) - ghost note
> - accentuded note
NH - natural harmonic
AH - artificial harmonic
TH - tapped harmonic
SH - semi harmonic
PH - pitch harmonic
h - hammer on
p - pull off
b - bend
br - bendRelease
pb - preBend
pbr - preBendRelease
brb - bendReleaseBend
\n/ - tremolo bar dip
\n - tremolo bar dive
-/n - tremolo bar Release up
/n\ - tremolo bar inverted dip
/n - tremolo bar return
-\n - tremolo bar Release down
S - shift slide
s - legato slide
/ -  slide into from below or out of upwards
\ -  slide into from above or out of downwards
~ - vibrato
W - wide vibrato
tr - trill
TP - tremolo picking
T - tapping
S - slap
P - pop
< - fade in
^ - brush up
v - brush down
comments
print report bad tab
I want to post or [tab]
guest
You may want to rate the tab now too:
select rating
Please do not post tabs as comments. Select "correction" instead!