Oops, an error
Loading. Please wait.

Friends And Alibis Tab

version 1
version 1

Whole song

Interactive

21,405 views 12 this week
2 commentsread comments
1 2 3 4 5
accurate
x 4
add to favorites
launch autoscroll
font size
0
reset
how to read this tab
guitar tuner
Autoscroll
slow
fast
+/-
esc
set tempo
stop
Help us to improve Ultimate-Guitar.com Take our survey!
×
Friend's And Alibis                               
Escape The Fate
Track 1



      E   E   S  S  S  E   S  E   S  S  S  S  
D||------------------------------------------|
A||--20--20--20-20-20-19--19-19--19-19-19-19-|
F||---x---x---x--x--x--x---x--x---x--x--x--x-|
C||--17--17--17-17-17-16--16-16--16-16-16-16-|
G||------------------------------------------|
C||------------------------------------------|


   E   E   S  S  S  E   S  E   S  S  S  S  
------------------------------------------|
--17--17--17-17-17-15--15-15--15-15-15-15-|
---x---x---x--x--x--x---x--x---x--x--x--x-|
--14--14--14-14-14-12--12-12--12-12-12-12-|
------------------------------------------|
------------------------------------------|


   E   E   S  S  S  E   S  E   S  S  S  S     E   E   S  S  S  E  Q.     S  
------------------------------------------|--------------------------------|
--20--20--20-20-20-19--19-19--19-19-19-19-|--17--17--17-17-17-15-----------|
---x---x---x--x--x--x---x--x---x--x--x--x-|---x---x---x--x--x--x-----------|
--17--17--17-17-17-16--16-16--16-16-16-16-|--14--14--14-14-14-12-----------|
------------------------------------------|--------------------------------|
------------------------------------------|--------------------------------|


    E  S S S S S E  S S S S S S S    E  S S S S S E  S S S S S S S  
|---------------------------------|--------------------------------|
|---------------------------------|--------------------------------|
|*--9--9-9-9-9-9-9--9-9-9-9-9-9-9-|--4--4-4-4-4-4-4--4-4-4-4-4-4-4-|
|*--9--9-9-9-9-9-9--9-9-9-9-9-9-9-|--4--4-4-4-4-4-4--4-4-4-4-4-4-4-|
|---7--7-7-7-7-7-7--7-7-7-7-7-7-7-|--2--2-2-2-2-2-2--2-2-2-2-2-2-2-|
|---------------------------------|--------------------------------|


  E  S S S S S E  S S S S S S S    E  S S S S S E  S S S S S S S    
--------------------------------|---------------------------------||
--------------------------------|---------------------------------||
--5--5-5-5-5-5-5--5-5-5-5-5-5-5-|--7--7-7-7-7-7-7--7-7-7-7-7-7-7-*||
--5--5-5-5-5-5-5--5-5-5-5-5-5-5-|--7--7-7-7-7-7-7--7-7-7-7-7-7-7-*||
--3--3-3-3-3-3-3--3-3-3-3-3-3-3-|--5--5-5-5-5-5-5--5-5-5-5-5-5-5--||
--------------------------------|---------------------------------||


   E  E  S S S E  S E  S S S S    E  E  S S S E  S E  S S S S    
-------------------------------|-------------------------------||
-------------------------------|-------------------------------||
*--4--4--4-4-4-5--5-5--5-5-5-5-|--9--9--9-9-9-7--7-7--7-7-7-7-*||
*--4--4--4-4-4-5--5-5--5-5-5-5-|--9--9--9-9-9-7--7-7--7-7-7-7-*||
---2--2--2-2-2-3--3-3--3-3-3-3-|--7--7--7-7-7-5--5-5--5-5-5-5--||
-------------------------------|-------------------------------||


  E  E  S S S E  S E  S S S S      E.  E.  E  E.  E.  E   
------------------------------||-------------------------|
------------------------------||-------------------------|
--9--9--9-9-9-7--7-7--7-7-7-7-||*------------------------|
--9--9--9-9-9-7--7-7--7-7-7-7-||*--5---5---5--5---5---5--|
--7--7--7-7-7-5--5-5--5-5-5-5-||---5---5---5--5---5---5--|
------------------------------||---5---5---5--5---5---5--|


  E.  E.  E  E.  E.  E     E.  E.  E  E.  E.  E     E.  E.  E  E.  E.  E     
------------------------|------------------------|-------------------------||
------------------------|------------------------|-------------------------||
--4---4---4--4---4---4--|--5---5---5--5---5---5--|--7---7---7--8---8---8--*||
--4---4---4--4---4---4--|--5---5---5--5---5---5--|--7---7---7--8---8---8--*||
--2---2---2--2---2---2--|--3---3---3--3---3---3--|--5---5---5--6---6---6---||
------------------------|------------------------|-------------------------||


   E  S S S S S E  S S S S S S S    E  S S S S S E  S S S S S S S  
---------------------------------|--------------------------------|
---------------------------------|--------------------------------|
*--9--9-9-9-9-9-9--9-9-9-9-9-9-9-|--4--4-4-4-4-4-4--4-4-4-4-4-4-4-|
*--9--9-9-9-9-9-9--9-9-9-9-9-9-9-|--4--4-4-4-4-4-4--4-4-4-4-4-4-4-|
---7--7-7-7-7-7-7--7-7-7-7-7-7-7-|--2--2-2-2-2-2-2--2-2-2-2-2-2-2-|
---------------------------------|--------------------------------|


  E  S S S S S E  S S S S S S S    E  S S S S S E  S S S S S S S    
--------------------------------|---------------------------------||
--------------------------------|---------------------------------||
--5--5-5-5-5-5-5--5-5-5-5-5-5-5-|--7--7-7-7-7-7-7--7-7-7-7-7-7-7-*||
--5--5-5-5-5-5-5--5-5-5-5-5-5-5-|--7--7-7-7-7-7-7--7-7-7-7-7-7-7-*||
--3--3-3-3-3-3-3--3-3-3-3-3-3-3-|--5--5-5-5-5-5-5--5-5-5-5-5-5-5--||
--------------------------------|---------------------------------||


  S S S S S S S S S S S S S S S S    S S S E  S S E  S S S S S S S  
----------------------------------|--------------------------------|
----------------------------------|--------------------------------|
--9---9---9---9---9---9---9-9-9-4-|--L-4-4-4--4-4-4--4-4-4-4-4-4-4-|
--9---9---9---9---9---9---9-9-9-4-|--L-4-4-4--4-4-4--4-4-4-4-4-4-4-|
--7---7---7---7---7---7---7-7-7-2-|--L-2-2-2--2-2-2--2-2-2-2-2-2-2-|
----------------------------------|--------------------------------|


  S S S S S S S S S S S S S S S S    S S S E  S S E  S S S S S S S  
----------------------------------|--------------------------------|
----------------------------------|--------------------------------|
--5---5---5---5---5---5---5-5-5-7-|--L-7-7-7--7-7-7--7-7-7-7-7-7-7-|
--5---5---5---5---5---5---5-5-5-7-|--L-7-7-7--7-7-7--7-7-7-7-7-7-7-|
--3---3---3---3---3---3---3-3-3-5-|--L-5-5-5--5-5-5--5-5-5-5-5-5-5-|
----------------------------------|--------------------------------|


    E  E  S S S E  S E  S S S S    E  E  S S S E  S E  S S S S    
|-------------------------------|-------------------------------||
|-------------------------------|-------------------------------||
|*--4--4--4-4-4-5--5-5--5-5-5-5-|--9--9--9-9-9-7--7-7--7-7-7-7-*||
|*--4--4--4-4-4-5--5-5--5-5-5-5-|--9--9--9-9-9-7--7-7--7-7-7-7-*||
|---2--2--2-2-2-3--3-3--3-3-3-3-|--7--7--7-7-7-5--5-5--5-5-5-5--||
|-------------------------------|-------------------------------||


  E  E  S S S E  S E  S S S S      E.  E.  E  E.  E.  E   
------------------------------||-------------------------|
------------------------------||-------------------------|
--9--9--9-9-9-7--7-7--7-7-7-7-||*------------------------|
--9--9--9-9-9-7--7-7--7-7-7-7-||*--5---5---5--5---5---5--|
--7--7--7-7-7-5--5-5--5-5-5-5-||---5---5---5--5---5---5--|
------------------------------||---5---5---5--5---5---5--|


  E.  E.  E  E.  E.  E     E.  E.  E  E.  E.  E     E.  E.  E  E.  E.  E     
------------------------|------------------------|-------------------------||
------------------------|------------------------|-------------------------||
--4---4---4--4---4---4--|--5---5---5--5---5---5--|--7---7---7--8---8---8--*||
--4---4---4--4---4---4--|--5---5---5--5---5---5--|--7---7---7--8---8---8--*||
--2---2---2--2---2---2--|--3---3---3--3---3---3--|--5---5---5--6---6---6---||
------------------------|------------------------|-------------------------||


  W                   E  H.           E     W                 
-------------------|---------------------|-------------------|
-------------------|---------------------|-------------------|
-------------------|---------------------|-------------------|
--2----------------|--2------------------|--2----------------|
--2----------------|--2------------------|--2----------------|
--2----------------|--2------------------|--2----------------|


     PM PM PM PM PM PM PM PM PM PM PM PM PM PM                             
  E  S  S  S  S  S  S  S  S  S  S  S  S  S  S       E.  E.  E  E.  E.  E   
-----------------------------------------------||-------------------------|
-----------------------------------------------||-------------------------|
-----------------------------------------------||*------------------------|
--2--------------------------------------------||*--2---2---2--2---2---2--|
--2--2--2--2--2--2--2--2--2--2--2--2--2--2--2--||---2---2---2--2---2---2--|
--2--2--2--2--2--2--2--2--2--2--2--2--2--2--2--||---2---2---2--2---2---2--|


  E.  E.  E  E.  E.  E     E.  E.  E  E.  E.  E     E.  E.  E  E.  E.  E     
------------------------|------------------------|-------------------------||
------------------------|------------------------|-------------------------||
------------------------|------------------------|--5---5---5--8---8---8--*||
--0---0---0--0---0---0--|--5---5---5--5---5---5--|--5---5---5--8---8---8--*||
--0---0---0--0---0---0--|--5---5---5--5---5---5--|--3---3---3--6---6---6---||
--0---0---0--0---0---0--|--5---5---5--5---5---5--|-------------------------||


  E.  E.  E  E.  E.  E     E.  E.  E  E.  E.  E     E.  E.  E  E.  E.  E   
------------------------|------------------------|------------------------|
------------------------|------------------------|------------------------|
--5---5---5--8---8---8--|------------------------|------------------------|
--5---5---5--8---8---8--|--2---2---2--2---2---2--|--0---0---0--0---0---0--|
--3---3---3--6---6---6--|--2---2---2--2---2---2--|--0---0---0--0---0---0--|
------------------------|--2---2---2--2---2---2--|--0---0---0--0---0---0--|


  E.  E.  E  E.  E.  E     E.  E.  E  E.  E.  E     E.  E.  E  E.  E.  E   
------------------------|------------------------|------------------------|
------------------------|------------------------|------------------------|
------------------------|--5---5---5--8---8---8--|------------------------|
--5---5---5--5---5---5--|--5---5---5--8---8---8--|--2---2---2--2---2---2--|
--5---5---5--5---5---5--|--3---3---3--6---6---6--|--2---2---2--2---2---2--|
--5---5---5--5---5---5--|------------------------|--2---2---2--2---2---2--|


  E.  E.  E  E.  E.  E     E.  E.  E  E.  E.  E     E.  E.  E  E.  E.  E   
------------------------|------------------------|------------------------|
------------------------|------------------------|------------------------|
------------------------|------------------------|--5---5---5--8---8---8--|
--0---0---0--0---0---0--|--5---5---5--5---5---5--|--5---5---5--8---8---8--|
--0---0---0--0---0---0--|--5---5---5--5---5---5--|--3---3---3--6---6---6--|
--0---0---0--0---0---0--|--5---5---5--5---5---5--|------------------------|


  E.  E.  E   E.  E.  E     E  S S E  E  E.  E.  E   
-------------------------|--------------------------|
------8------------------|---------------8---7------|
-------------------------|-----------------------7--|
-------------------------|--------------------------|
--5-------5--10---9---5--|--L--5-5-5--5-------------|
-------------------------|--------------------------|


  E.  E.  E  E.      E.   E     E.    E.  E   E   S  S  S  S  E   
-----------------------------|-----------------------------------|
-----------------12g13---10--|-----------------------------------|
----------5------------------|-----------------------------------|
------5----------------------|---------------12--12-12-12-11-11--|
--7----------7---------------|--7S---10---9---x---x--x--x--x--x--|
-----------------------------|---------------12--12-12-12-11-11--|


  E.  E.  E   E.  E.  E     E  S S E  E  E.  E.  E   
-------------------------|--------------------------|
------8------------------|---------------8---7------|
-------------------------|-----------------------7--|
-------------------------|--------------------------|
--5-------5--10---9---5--|--L--5-5-5--5-------------|
-------------------------|--------------------------|


  E.  E.  E  E.   E    E.     Q    Q    Q    Q         E.  E.  E  E.  E.  E   
---------------------------|----------------------||-------------------------|
-----------------12S--13---|----------------------||-------------------------|
----------5----------------|--4----4----5----5----||*------------------------|
------5--------------------|--4----4----5----5----||*--5---5---5--5---5---5--|
--7----------7-------------|--2----2----3----3----||---5---5---5--5---5---5--|
---------------------------|----------------------||---5---5---5--5---5---5--|


  E.  E.  E  E.  E.  E     E.  E.  E  E.  E.  E     E.  E.  E  E.  E.  E   3x
------------------------|------------------------|-------------------------||
------------------------|------------------------|-------------------------||
--4---4---4--4---4---4--|--5---5---5--5---5---5--|--7---7---7--8---8---8--*||
--4---4---4--4---4---4--|--5---5---5--5---5---5--|--7---7---7--8---8---8--*||
--2---2---2--2---2---2--|--3---3---3--3---3---3--|--5---5---5--6---6---6---||
------------------------|------------------------|-------------------------||


  E.  E.  E  E.  E.  E     E.  E.  E  E.  E.  E     E.  E.  E  E.  E.  E   
------------------------|------------------------|------------------------|
------------------------|------------------------|------------------------|
------------------------|--4---4---4--4---4---4--|--5---5---5--5---5---5--|
--5---5---5--5---5---5--|--4---4---4--4---4---4--|--5---5---5--5---5---5--|
--5---5---5--5---5---5--|--2---2---2--2---2---2--|--3---3---3--3---3---3--|
--5---5---5--5---5---5--|------------------------|------------------------|


  E.  E.  E  E.  E.  S S    E.  E.  S S E.  E.  S S    W                 
-------------------------|--------------------------|-------------------|
-------------------------|--------------------------|-------------------|
--7---7---7--8---8---8---|--8---8---8---8---8---8---|-------------------|
--7---7---7--8---8---8---|--8---8---8---8---8---8---|--5----------------|
--5---5---5--6---6---6---|--6---6---6---6---6---6---|--5----------------|
-------------------------|--------------------------|--5----------------|


  W                   W                   W                  
-------------------|-------------------|-------------------||
-------------------|-------------------|-------------------||
-------------------|-------------------|-------------------||
--L----------------|--L----------------|--L----------------||
--L----------------|--L----------------|--L----------------||
--L----------------|--L----------------|--L----------------||




Duration Legend
---------------
W - whole
H - half
Q - quarter
E - 8th
S - 16th
T - 32nd
X - 64th
. - note dotted
|-n-|  - n-tuplets


Tablature Legend
----------------
L - tied note
x - dead note
g - grace note
(n) - ghost note
> - accentuded note
NH - natural harmonic
AH - artificial harmonic
TH - tapped harmonic
SH - semi harmonic
PH - pitch harmonic
h - hammer on
p - pull off
b - bend
br - bendRelease
pb - preBend
pbr - preBendRelease
brb - bendReleaseBend
\n/ - tremolo bar dip
\n - tremolo bar dive
-/n - tremolo bar Release up
/n\ - tremolo bar inverted dip
/n - tremolo bar return
-\n - tremolo bar Release down
S - shift slide
s - legato slide
/ -  slide into from below or out of upwards
\ -  slide into from above or out of downwards
~ - vibrato
W - wide vibrato
tr - trill
TP - tremolo picking
T - tapping
S - slap
P - pop
< - fade in
^ - brush up
v - brush down
Suggest correction
comments
print report bad tab
2 comments total.
+1 reply
andres1 106 wrote on March 1 2009, 01:04 am

doesn't sound much like it
and the sections aren't labeled, its confusing

0 reply
ibanezeric82 103 wrote on July 20 2009, 02:35 am

uhh, which part is which?

guest
You may want to rate the tab now too:
select rating
Wanna post a correction for this tab? Suggest correction